» » »

Janes Addiction, True Nature Bass tabs (ver.1)

Artists:  A B C D E F G H I J K L M N O P Q R S T U V W X Y Z # 

True Nature Bass tabs (ver.1)

Janes Addiction Tabs
 Rating:
4/5 (4 votes)
True Nature lessons Tabs too difficult? Try these video lessons and learn fast
1
                TRUE NATURE (preliminar version)  - JANE's ADDICTION - STRAYS (2003)
Buy Originals!!


Main Riff (Verse and chorus)  
G|--------------------------------|
D|--------------------------------| 
A|--------------5p3---------------|
D|----3p2-0-----------0--3p2--0---|

Bridge (2:28 )
G|----------------------------------------------------|
D|----------------------------------------------------| 
A|--/13------13h15----------11----------6----------3--|
D|----------------------------------------------------|


Main Riff (Verse and chorus)  
G|--------------------------------|
D|--------------------------------| 
A|-----------5---5p3--------------|
D|----3p2-0-----------0--3p2--0---|

This part is not on the official version, but I couldn't wait to the release of the album and this part is from the outtaken tracks. (but buy originals!!!! :D :D)

Outro (3:52)
G|---------------------|
D|---8--8-9--9--10-10--| 
A|---------------------|
D|---------------------|        *1 (1st time)
                        ,--------^------,   
G|---------------------------------------|
D|---8--8-9--9--10-10----10/15-15-14/15--| 
A|---------------------------------------|
D|---------------------------------------|


---> *1 variations (in order of been played)
   2nd time            3rd time
G|---------------| G|---------------|
D|---10/15-17-19-| D|--10/15-14-19--|
A|---------------| A|---------------|
D|---------------| D|---------------|


----------------------------------------------
            
Submit corrections

comments powered by Disqus
↑ Back to top | Janes Addiction Bass for True Nature. Lyrics for acoustic guitar and electric guitar. 1 Tablatures and chords are parodies/interpretations of the original songs. You may use it for private study, scholarship, research or language learning purposes only