» » »

Jamisonparker, Your Song Tabs (ver.2)

Artists:  A B C D E F G H I J K L M N O P Q R S T U V W X Y Z # 

Your Song Tabs (ver.2)

Jamisonparker Tabs
Rating:
1/5 (1 vote)
Your Song lessons Tabs too difficult? Try these video lessons and learn fast
                (Intro)

Now i havent listened to the song in a while so i don't know exactly what the
first note sounds like, but i think you could figure it out. I'll update this
when i hear the song again. This should do for now. I've got one more way of
playing it, i'll put it on sometime soon. Keep checking in.

Intro:
Guitar 1-
e|--------------------------------------------------------------|
B|--------------------------------------------------------------|
G|--------------------------------------------------------------|
D|---------11-14-11-----11-14-11-----12-14-12-----12-14-12------|
A|--121212-----------12-----------10-----------10---------------|
E|--------------------------------------------------------------|

e|--------------------------------------------------------------------|
B|--------------------------------------------------------------------|
G|--------------------------------------------------------------------|
D|---------11-14-11-----11-14-11-----12-14-12/17-17-17-17-16-16-16-14~|
A|--121212-----------12-----------10----------------------------------|
E|--------------------------------------------------------------------|

Guitar 2-
e|-----------------------------------------------------|
B|-----------------------------------------------------|
G|-----------------------------------------------------|
D|-----------------------------------------------------|
A|--0-2-4-4---0-2-4-0---0-4-5-5/7-7h9-10-9-7~----------|
E|-----------------------------------------------------|

END
            

comments powered by Disqus
↑ Back to top | Jamisonparker Tabs for Your Song. Lyrics for acoustic guitar and electric guitar. Tablatures and chords are parodies/interpretations of the original songs. You may use it for private study, scholarship, research or language learning purposes only