>
 >
Your Song

Your Song Guitar Tabs

Jamisonparker - Your Song chords, tabs, tablatures, lyrics

Guitar lessons | Add/correct | Request | Top 50 tabs Artists:  A B C D E F G H I J K L M N O P Q R S T U V W X Y Z 0-9

Your Song Guitar Tabs – Jamisonparker

CD, Sheet music, Poster

Do you like Your Song? Share with your friends now
TabsTabs v2
Jamisonparker – Your Song

Standard Tuning.

The other tabs didn’t sound quite right to me so here’s my attempt.


Intro   [Guitar One]

e|------------------------------------------------------------------|
B|-----------8------8------8-----8-------8------8------8------8-----|
G|----------9-9----9-9----9-9---9-9----10-10--10-10--10-10--10-10---|
D|--10-10-10-----10-----10-----10----8-------8------8------8--------|
A|------------------------------------------------------------------|
E|------------------------------------------------------------------|

	[Guitar Two]

e|--------------------------------------------------------------|
B|--15151515-13131313-15151515-13131313-------------------------|
G|--------------------------------------------------------------|
D|--------------------------------------------------------------|
A|--------------------------------------------------------------|
E|--------------------------------------------------------------|

	[Guitar Three]

e|--------------------------------------------------------------|
B|--------------------------------------------------------------|
G|--------------------------------------------------------------|
D|--------------------------------------------------------------|
A|-------7-7------7------7-8-8/10-10/12-13-12-10-8--------------|
E|--8-10-----8-10---8--8----------------------------------------|

Verse [ “Tonight I’d rather be in love...” ]

	[Guitar One]

e|------------------------------------------------------------------|
B|-----------8------8------8-----8-------8------8------8------8-----|
G|----------9-9----9-9----9-9---9-9----10-10--10-10--10-10--10-10---|
D|--10-10-10-----10-----10-----10----8-------8------8------8--------|
A|------------------------------------------------------------------|
E|------------------------------------------------------------------|

	[Guitar Two]

e|--------------------------------------------------------------|
B|--15151515-13131313-15151515-13131313-------------------------|
G|--------------------------------------------------------------|
D|--------------------------------------------------------------|
A|--------------------------------------------------------------|
E|--------------------------------------------------------------|

	[Guitar Three]

e|--------------------------------------------------------------|
B|--------------------------------------------------------------|
G|--------------------------------------------------------------|
D|--------------------------------------------------------------|
A|-------7-7------7------7-8-8/10-10/12-13-12-10-8--------------|
E|--8-10-----8-10---8--8----------------------------------------|

Bridge [ “And you cling to every breath that clings to me…” ] 

	[Guitar Two]

e|--------------------------------------------------------------|
B|--15151515-13131313-15151515-13131313-------------------------|
G|--------------------------------------------------------------|
D|--------------------------------------------------------------|
A|--------------------------------------------------------------|
E|--------------------------------------------------------------|


Chorus [ “I live in notes and photographs...” ] 

[Guitar One – lightly in background]

e|------------------------------------------------------------------|
B|-----------8------8------8-----8-------8------8------8------8-----|
G|----------9-9----9-9----9-9---9-9----10-10--10-10--10-10--10-10---|
D|--10-10-10-----10-----10-----10----8-------8------8------8--------|
A|------------------------------------------------------------------|
E|------------------------------------------------------------------|

[Guitar Two -  lightly in background]

e|--------------------------------------------------------------|
B|--------------------------------------------------------------|
G|-----12-10-9-10-9---------------------------------------------|
D|--10--------------10h12---------------------------------------|
A|--------------------------------------------------------------|
E|--------------------------------------------------------------|

	[Guitar Three – listen for strumming pattern]

e|---------------------------------------------------------------|
B|---------------------------------------------------------------|
G|--5------------------------------------------------------------|
D|--5--5--7--3---------------------------------------------------|
A|--3--5--7--3---------------------------------------------------|
E|-----3--5--1---------------------------------------------------|





Comments


Popular Jamisonparker tabs & chords
Alcohol & Bandages Bass Tabs
Best Mistake Bass Tabs
Dear Everybody Bass Tabs
Anthem For The Broken Hearted Tabs
Best Mistake 2 Tabs
Here's Everything I've Always Meant To Say Tabs
Heres Everything Ive Always Meant To Say Tabs
Tearing Through Me 1 Tabs
Your Song 1 Tabs
Your Song Intro Tabs


Song lyrics



↑ Back to top | Tablatures and chords are parodies/interpretations of the original songs. You may use it for private study, scholarship, research or language learning purposes only
© 2014 AZChords.com Contact us | Privacy policy | DMCA | Add/correct tabs | Request tabs | Top 50 tabs