» » »

Jamie T, Operation Bass tabs (ver.2)

Artists:  A B C D E F G H I J K L M N O P Q R S T U V W X Y Z # 

Operation Bass tabs (ver.2)

Jamie T Tabs
 Rating:
4/5 (4 votes)
Operation lessons Tabs too difficult? Try these video lessons and learn fast
                -------------------------------------------------------------------------------
                             OPERATION - Jamie T
-------------------------------------------------------------------------------


Tuning:Normal

You play this part through most of the song i copied it from Ted Barton but there's more.....

G|-----------7---7--------------0--4--2--------6--6--------6/7---6---4---------|
D|---0---0-------------0--2--4-----------4--4--------4--4----------------------|
A|-----------------------------------------------------------------------------|
E|-----------------------------------------------------------------------------|

Take your problem to United Nations............
G|------------------------2--2-----------------------------------------------|
D|------------------2---4------4---2-----------------------------------------|
A|------------2---4-----------------4---2------------------------------------|
E|----2----4-----------------------------4---2-------------------------------|

Songs of see them sound (or something) out loud for the revelation all thriller no filler...
G|-----------------------------------------------------------------------------|
D|-----------------------------------------------------------------------------|
A|--2222-0000------------------------------------------------------------------|
E|------------2222-0202--------------------------------------------------------|

So Filler or thrill 'er
G|---------------------------------------------------------------------------|
D|---------------------------------------------------------------------------|
A|-------------------2-0-2-0-4-2-4-2-----------------------------------------|
E|---2-0-2-0-2-0-2-0---------------------------------------------------------|


Hope that helps anyone trying to learn this tune, this is my first tab so be kind!

| /  slide up
| \  slide down
| h  hammer-on
| p  pull-off
| ~  vibrato
| +  harmonic
| x  Mute note
===============================================================================
            
Submit corrections

comments powered by Disqus
↑ Back to top | Jamie T Bass for Operation. Lyrics for acoustic guitar and electric guitar. Tablatures and chords are parodies/interpretations of the original songs. You may use it for private study, scholarship, research or language learning purposes only