» » »

Jamie T, If You Got The Money Tabs (ver.2)

Artists:  A B C D E F G H I J K L M N O P Q R S T U V W X Y Z # 

If You Got The Money Tabs (ver.2)

Jamie T Tabs
Rating:
0/5 (0 votes)
If You Got The Money lessons Tabs too difficult? Try these video lessons and learn fast
                -------------------------------------------------------------------------------
			     Jamie T – If you got the Money
-------------------------------------------------------------------------------


I play it half a step down, so move this where ever you like; up or down the fret board. 
put the time to each section when it starts so see the Vid for timing etc. (minutes:seconds)


“If you got the money, I think…” (00:01)

e ---------------------------------------------------------|
B ---------------------------------------------------------|
G --5----6----10----8--------------------------------------|
D --6----8----11----10-------------------------------------| x 2
A ---------------------------------------------------------|
E ---------------------------------------------------------|


“And all the boys they go, Dah-Dee…” (00:21)

Play bold section quicker

e -------------------------------------------------------------------------------|
B -------------------------------------------------------------------------------|
G --5----6-6—6-6-10-10-10-10-8--8--8--8--5-5-5-5-6-6-6-6-10-10-10-10-8--8--8—8---|
D --6----8-8-8-8-11-11-11-11-10-10-10-10-6-6-6-6-8-8-8-8-11-11-11-11-10-10-10-10-|
A -------------------------------------------------------------------------------|
E -------------------------------------------------------------------------------|

“You were always meant to walk out that job…” (00:41)

e ------------------------------------------|
B ------------------------------------------|
G --5-5-5-5-6-6—6-6-10-10-10-10-8--8--8--8--|
D --6-6-6-6-8-8-8-8-11-11-11-11-10-10-10-10-|
A ------------------------------------------|
E ------------------------------------------|

“With a Buddy Holly Hiccup on the Karaoke…” (00:52)

Strum this part quick


e ------------------------------------------|
B ------------------------------------------|
G --5555555566686666101010101010101088888888
D --6666666688868888111111111111111110101010
A ------------------------------------------|
E ------------------------------------------|

“Lovers all talk in the spits and tongues…” (01:01)

Strum Power Chords

G#	A#	C#	G#

“Sum of us stay want to run away…” (01:11)

Strum Barre Chords Soft to Loud

G#	A#m	C#	G#

“With ya De-dom, Dom-Dee…” (01:21)

Strum Barre Chords Louder and Palm mute in between strokes

G#	A#m	C#	G#

“And all the boys they go…” (01:40)

Strum Barre Chords

G#	A#m	C#	G#


“If you got the money, I think…” (02:00)

e ---------------------------------------------------------|
B ---------------------------------------------------------|
G --5----6----10----8--------------------------------------|
D --6----8----11----10-------------------------------------| x 2
A ---------------------------------------------------------|
E ---------------------------------------------------------|

Finished.
            
Submit corrections

comments powered by Disqus
↑ Back to top | Jamie T Tabs for If You Got The Money. Lyrics for acoustic guitar and electric guitar. Tablatures and chords are parodies/interpretations of the original songs. You may use it for private study, scholarship, research or language learning purposes only