» » »

Jamie T, Back In The Game Tabs (ver.1)

Artists:  A B C D E F G H I J K L M N O P Q R S T U V W X Y Z # 

Back In The Game Tabs (ver.1)

Jamie T Tabs
 Rating:
4.6/5 (10 votes)
Back In The Game lessons Tabs too difficult? Try these video lessons and learn fast
                -------------------------------------------------------------------------------
-------------------------------------------------------------------------------

Ive tried to tab this best i could im not 100% on the bridge but the rest im pretty sure on
This is a long tab even though the song is short this is because ive tabbed every part 
with the lyrics

PS-The way the lyrics and tab are structured together isnt the correct strumming pattern 
im sure you could get it by listening

 Tuning:EADGBe


Verse 1

      Take your brother down to the sea,  Have two’s on a cigarette.
e|--------------------------------------------------------------------------|
B|--------------------------------------------------------------------------|
G|--------------------------------------------------------------------------|
D|---7-------------4--------------------------------------------------------|
A|-5-------------2----------------------------------------------------------|
E|---------------------------------------3-------5--------------------------|

      Young sons mozy it happily,  Learn facts on the soviet
e|--------------------------------------------------------------------------|
B|--------------------------------------------------------------------------|
G|--------------------------------------------------------------------------|
D|---7---------------4------------------------------------------------------|
A|-5---------------2--------------------------------------------------------|
E|----------------------------------3-------5-------------------------------|

     A crowded room that holds just three, takes four do you connect?
e|--------------------------------------------------------------------------|
B|--------------------------------------------------------------------------|
G|--------------------------------------------------------------------------|
D|-7-7-7-7-------4-4-4-4----------------------------------------------------|
A|5-5-5-5-5-----2-2-2-2-2-------------5-5-5-5----7-7-7-7--------------------|
E|-----------------------------------3-3-3-3-3--5-5-5-5-5-------------------|

     And all this sh*t means f**k all to me Long livers in the sunset
e|--------------------------------------------------------------------------|
B|--------------------------------------------------------------------------|
G|--------------------------------------------------------------------------|
D|-7-7-7-7-------4-4-4-4----------------------------------------------------|
A|5-5-5-5-5-----2-2-2-2-2-------------5-5-5-5----7-7-7-7--------------------|
E|-----------------------------------3-3-3-3-3--5-5-5-5-5-------------------|

Instrumental
e|--------------------------------------------------------------------------|
B|--------------------------------------------------------------------------|
G|-7-7-7-7---4-4-4-4--------------------------------------------------------|x2
D|-7-7-7-7---4-4-4-4---5-5-5-5---7-7-7-7------------------------------------|
A|-5-5-5-5---2-2-2-2---5-5-5-5---7-7-7-7------------------------------------|
E|---------------------3-3-3-3---5-5-5-5------------------------------------|

Verse 2


      So crazy Billy Jay Jones,  robs banks just for the sh*ts
e|--------------------------------------------------------------------------|
B|--------------------------------------------------------------------------|
G|--------------------------------------------------------------------------|
D|---7-------------4--------------------------------------------------------|
A|-5-------------2----------------------------------------------------------|
E|---------------------------------------3-------5--------------------------|

      Man alone giggling so stoned, pick up the phone, Cos that money I lent
e|--------------------------------------------------------------------------|
B|--------------------------------------------------------------------------|
G|--------------------------------------------------------------------------|
D|---7-------------4--------------------------------------------------------|
A|-5-------------2----------------------------------------------------------|
E|---------------------------------------3-------5--------------------------|

   you said was just a loan, You’re danger prone, with too much gel
e|--------------------------------------------------------------------------|
B|--------------------------------------------------------------------------|
G|--------------------------------------------------------------------------|
D|-7-7-7-7-------4-4-4-4----------------------------------------------------|
A|5-5-5-5-5-----2-2-2-2-2-------------5-5-5-5----7-7-7-7--------------------|
E|-----------------------------------3-3-3-3-3--5-5-5-5-5-------------------|

whiff of dad’s cologne Leave me alone,Cos now you come down and you just go and lower 
tone
e|--------------------------------------------------------------------------|
B|--------------------------------------------------------------------------|
G|--------------------------------------------------------------------------|
D|-7-7-7-7-------4-4-4-4----------------------------------------------------|
A|5-5-5-5-5-----2-2-2-2-2-------------5-5-5-5----7-7-7-7---7-7-7-7----------|
E|-----------------------------------3-3-3-3-3--5-5-5-5-5-5-5-5-5-5---------|

Chorus 1
      But after about ten clear minutes, he was back in the game.
e|--------------------------------------------------------------------------|
B|--------------------------------------------------------------------------|
G|--------------------------------------------------------------------------|
D|--7-7-7-7-7-7-------------------------------------------------------------|
A|-5-5-5-5-5-5-5--2-2-2-2-2-2-2---5-5-5-5-x-x-x-x-x-x-x-x-x-x-x-------------|
E|---------------0-0-0-0-0-0-0-0-3-3-3-3--x-x-x-x-x-x-x-x-x-x-x-------------|

     Thought he was done man, thought he was finished,But he’s back up again
e|--------------------------------------------------------------------------|
B|--------------------------------------------------------------------------|
G|--------------------------------------------------------------------------|
D|--7-7-7-7-7-7-------------------------------------------------------------|
A|-5-5-5-5-5-5-5--2-2-2-2-2-2-2---5-5-5-5-x-x-x-x-x-x-x-x-x-x-x-------------|
E|---------------0-0-0-0-0-0-0-0-3-3-3-3--x-x-x-x-x-x-x-x-x-x-x-------------|

      But after about ten clear minutes, he was back in the game.
e|--------------------------------------------------------------------------|
B|--------------------------------------------------------------------------|
G|--------------------------------------------------------------------------|
D|--7-7-7-7-7-7-------------------------------------------------------------|
A|-5-5-5-5-5-5-5--2-2-2-2-2-2-2---5-5-5-5-x-x-x-x-x-x-x-x-x-x-x-------------|
E|---------------0-0-0-0-0-0-0-0-3-3-3-3--x-x-x-x-x-x-x-x-x-x-x-------------|

     Thought he was done man, thought he was finished,But he’s back up again
e|--------------------------------------------------------------------------|
B|--------------------------------------------------------------------------|
G|--------------------------------------------------------------------------|
D|--7-7-7-7-7-7-------------------------------------------------------------|
A|-5-5-5-5-5-5-5--2-2-2-2-2-2-2---5-5-5-5-x-x-x-x-x-x-x-x-x-x-x-------------|
E|---------------0-0-0-0-0-0-0-0-3-3-3-3--x-x-x-x-x-x-x-x-x-x-x-------------|

Bridge (Not 100% But Pretty Sure)
e|--------------------------------------------------------------------|
B|--------------------------------------------------------------------|
G|--------------------------------------------------------------------|x2
D|---7-5-------7-5---7-5----------------------------------------------|
A|-0-------2-2------5-------------------------------------------------|
E|----------------------------5-5-------------------------------------|

Verse 3


          With a tainted brain of intoxication purple heart smartarse
e|--------------------------------------------------------------------------|
B|--------------------------------------------------------------------------|
G|--------------------------------------------------------------------------|
D|---7-------------4--------------------------------------------------------|
A|-5-------------2----------------------------------------------------------|
E|---------------------------------------3-------5--------------------------|

      Got on the transistor, said that you missed her,Looking for selectors and found no 
better than you ?
e|--------------------------------------------------------------------------|
B|--------------------------------------------------------------------------|
G|--------------------------------------------------------------------------|
D|---7---------------4------------------------------------------------------|
A|-5---------------2--------------------------------------------------------|
E|----------------------------------3-------5-------------------------------|

With bother boy blues, take up the old tick up the avenues
e|--------------------------------------------------------------------------|
B|--------------------------------------------------------------------------|
G|--------------------------------------------------------------------------|
D|-7-7-7-7-------4-4-4-4----------------------------------------------------|
A|5-5-5-5-5-----2-2-2-2-2-------------5-5-5-5----7-7-7-7--------------------|
E|-----------------------------------3-3-3-3-3--5-5-5-5-5-------------------|

     And talk like you do what you do,Takin up time, but now it comes down and it’s for 
the bell tolls.t
e|--------------------------------------------------------------------------|
B|--------------------------------------------------------------------------|
G|--------------------------------------------------------------------------|
D|-7-7-7-7-------4-4-4-4----------------------------------------------------|
A|5-5-5-5-5-----2-2-2-2-2-------------5-5-5-5----7-7-7-7---7-7-7-7----------|
E|-----------------------------------3-3-3-3-3--5-5-5-5-5-5-5-5-5-5---------|

Chorus 2

      But after about ten clear minutes, he was back in the game.
e|--------------------------------------------------------------------------|
B|--------------------------------------------------------------------------|
G|--------------------------------------------------------------------------|
D|--7-7-7-7-7-7-------------------------------------------------------------|
A|-5-5-5-5-5-5-5--2-2-2-2-2-2-2---5-5-5-5-x-x-x-x-x-x-x-x-x-x-x-------------|
E|---------------0-0-0-0-0-0-0-0-3-3-3-3--x-x-x-x-x-x-x-x-x-x-x-------------|

     Thought he was done man, thought he was finished,But he’s back up again
e|--------------------------------------------------------------------------|
B|--------------------------------------------------------------------------|
G|--------------------------------------------------------------------------|
D|--7-7-7-7-7-7-------------------------------------------------------------|
A|-5-5-5-5-5-5-5--2-2-2-2-2-2-2---5-5-5-5-x-x-x-x-x-x-x-x-x-x-x-------------|
E|---------------0-0-0-0-0-0-0-0-3-3-3-3--x-x-x-x-x-x-x-x-x-x-x-------------|

      But after about ten clear minutes, he was back in the game.
e|--------------------------------------------------------------------------|
B|--------------------------------------------------------------------------|
G|--------------------------------------------------------------------------|
D|--7-7-7-7-7-7-------------------------------------------------------------|
A|-5-5-5-5-5-5-5--2-2-2-2-2-2-2---5-5-5-5-x-x-x-x-x-x-x-x-x-x-x-------------|
E|---------------0-0-0-0-0-0-0-0-3-3-3-3--x-x-x-x-x-x-x-x-x-x-x-------------|

     Thought he was done man, thought he was finished,But he’s back up again
e|--------------------------------------------------------------------------|
B|--------------------------------------------------------------------------|
G|--------------------------------------------------------------------------|
D|--7-7-7-7-7-7-------------------------------------------------------------|
A|-5-5-5-5-5-5-5--2-2-2-2-2-2-2---5-5-5-5-x-x-x-x-x-x-x-x-x-x-x-------------|
E|---------------0-0-0-0-0-0-0-0-3-3-3-3--x-x-x-x-x-x-x-x-x-x-x-------------|

Outro

e|--------------------------------------------------------------------------|
B|--------------------------------------------------------------------------|
G|--------------------------------------------------------------------------|
D|-7-7-7-7--4-4-4-4--------------------7------------------------------------|
A|-5-5-5-5--2-2-2-2--5-5-5-5--7-7-7-7--5(Let ring)--------------------------|
E|-------------------3-3-3-3--5-5-5-5---------------------------------------|


Thats it finally
Long Tab For A Short Song
Enjoy

Ratings And Comments Would Be Appreciated

| /  slide up
| \  slide down
| h  hammer-on
| p  pull-off
| ~  vibrato
| +  harmonic
| x  Mute note
===============================================================================
            
Submit corrections

comments powered by Disqus
↑ Back to top | Jamie T Tabs for Back In The Game. Lyrics for acoustic guitar and electric guitar. Tablatures and chords are parodies/interpretations of the original songs. You may use it for private study, scholarship, research or language learning purposes only