» » »

James Taylor, Sunny Skies Tabs (ver.2)

Artists:  A B C D E F G H I J K L M N O P Q R S T U V W X Y Z # 

Sunny Skies Tabs (ver.2)

James Taylor Tabs
 Rating:
4/5 (4 votes)
Sunny Skies lessons Tabs too difficult? Try these video lessons and learn fast
1
                I haven´t been able to find this tab anywhere on the internet.
I guess nobody is stupid (or autistic) enough to try and make it out note for note
(especially the ending). But here it is anyway :-)
The ending is really only the same two chords, but the bass is heavily
syncopated and needs some rehearsing!
Enjoy!
Irion


SUNNY SKIES (James Taylor, 1970)
Capo 3rd fret for original key of C

Bass: E, F#, A [Amaj7] xx212x  /   Bass: E, F#, B [E7sus4] xx020x

[Amaj7]  Sunny skies sleeps in the [E7sus4] morning.
He [Amaj7] doesn't know when to [E7sus4] rise.
He [Amaj7] closes his weary [E7sus4] eyes upon
the [Amaj7] day, look at him [E7sus4] yawning,
[Amaj7] throwing his [E7sus4] morning hours
[Amaj7] away He knows how to [E7sus4] ease down
[Amaj7] slowly [E7sus4] Everything is fine in the [Amaj7] end
And you will be [E7sus4] pleased to
[Amaj7] know that [E7sus4] Sunny Skies hasn't a friend.

[Amaj7] Sunny skies weeps in the [E7sus4] ev'nin'.
It [Amaj7] doesn't much matter [E7sus4] why
I [Amaj7] guess he just has to [E7sus4] cry from time to
[Amaj7] time Everyone's [E7sus4] leavin'
[Amaj7] and Sunny skies [E7sus4] has to stay
[Amaj7] behind Still he knows how to [E7sus4] ease down
[Amaj7] slowly [E7sus4] Everything is fine in the
[Amaj7] end. And you will be [E7sus4] pleased to
[Amaj7] know that [E7sus4] Sunny Skies hasn't a friend.

[Amaj7] Sunny skies sleeps in the [E7sus4] morning.
He [Amaj7] doesn't know when to [E7sus4] rise
He [Amaj7] closes his weary [E7sus4] eyes upon the
[Amaj7] day and [E7sus4] throws it all [Amaj7] (tab) away.


e--[Amaj7]-------------------[E7sus4]-|-------------[Amaj7]-----------[E7sus4]---|
B--2-----------2-------2--------------|----0------0------2--------2--------------|
G--1-----------1-------1--------------|----2------2------1--------1--------------|
D--2----------------------------------|------------------------2-----------------|
A--0--------------0---------------2___|__------------0-----------------2_________|
E----------0--------------------------|------ -0---------------------------------|
							          

||:--------------------------|-------- [Amaj7]--------|--[E7sus4]--------|------[Amaj7]----------:||
||:----0--------0------------|--0----0-----2------2---|-----0------0-----|----------2-------2----:||
||:----2--------2------------|--2----2-----1------1---|-----2------2-----|----------1-------1----:||
||:--------------------------|-----------------2------|------------------|---------------2-------:||
||:____----------------------|---------0--------------|--2---------------|------0__-----------2__:||
||:--------0_________________|----0-------------------|---------0--0--0--|--0--------------------:||
              1) Looking at the snow and trees that grow        outside my win-dow.	
              2) Looking at the things that pass me by.
              3) Wondering if where I've been is worth the things I've been through?
e----[E7sus4]-------------|--[E7]--------------------|--[Amaj7]------|
B----0--------0----------|------------------------2__|__-------------|
G----2--------2----------|--1-------2---1---------1__|__-------------|
D------------------------|--0-------0---0---2-----2__|__-------------|
A__---------------2------|---------------------------|--0------------|
E--------0________----0___|___________--0---2-----0--|---------------|
	         4) Ending with a friend named Sunny Skies.
            
Submit corrections

comments powered by Disqus
↑ Back to top | James Taylor Tabs for Sunny Skies. Lyrics for acoustic guitar and electric guitar. 1 Tablatures and chords are parodies/interpretations of the original songs. You may use it for private study, scholarship, research or language learning purposes only