>
 >
Don't Let Me Be Lonely Tonight

Don't Let Me Be Lonely Tonight Guitar Tabs

James Taylor - Don't Let Me Be Lonely Tonight chords, tabs, tablatures, lyrics

Guitar lessons | Add/correct | Request | Top 50 tabs Artists:  A B C D E F G H I J K L M N O P Q R S T U V W X Y Z 0-9

Don't Let Me Be Lonely Tonight Guitar Tabs – James Taylor

CD, Sheet music, Poster

Do you like Don't Let Me Be Lonely Tonight? Share with your friends now
ChordsTabsTabs v2Tabs v3
WOW!  This tab took me a very very long time
to type up, because of my attention to detail
on this specific song.  I think the result is
quite accurate though!  I typed this specific
song up GP3, cause the timing is hard to get
otherwise.  Anyways, I hope this tab helps you
play this rather cool song, however, if you wish
to use this tab on a site or claim credit for it,
please inform me before hand.  Thanks!


                              Em9        Gmaj7/A      
e||------------------------|-------------2-----------|
B||------------------------|--------3-------3--------|
G||------------------------|-----0-------------0-----|
D||----------------0--1--2-|-------------------------|
A||----------0-1-2---------|-------------0--------0--|
E||------------------------|--0----------------------|

    Dmaj9    B7-9              Em9         Gmaj7/A      
e|--0-----------------------|--------------------------|
B|-----2-----1--------------|---------3--2-------------|
G|--------2-------2-----2---|--0-----------------0-----|
D|--0-----------1----1------|-----2-----------2-----4--|
A|-----------2--------------|--------------0-----------|
E|--------------------------|--0-----------------------|

    F#m7        B7             Gmaj7      F#m7          Bm7      E9           
e|--------------------------|------------------------|--------2--------------|
B|--------2-----4-----------|------------------------|-----3----------3------|
G|--------2-----2-----2-----|--------4----------2----|--2--------1-----------|
D|-----4------4----4--------|-----4----------2-------|-----------------------|
A|--------------2--------2--|------------------------|--2--------------------|
E|--2-----------------------|--3----------2----------|-----------0-----------|

    Em9         Gmaj7/A         Dmaj9    B7-9             
e|--2------------------------|--0------------------------|
B|-----3-----3--------3------|-----2-----1-----------1---|
G|--------0--------0---------|----------------2----------|
D|-------------------------0-|--------0-----1------1-----|
A|--------------0--------0---|-----------2-------2-------|
E|--0------------------------|---------------------------|

    Em9        Gmaj7/A       Dmaj9       B7-9           Em7       Gmaj7/A   
e|-------------2----------|--0-----------------------|---------------------|
B|-------3--------3-------|-----2-----2--------------|---------3-----------|
G|----0------0-------2----|--------2-------2-----2---|----------------0----|
D|------------------------|--------------1-----1-----|----0----------------|
A|------------------------|--------------------------|---------------------|
E|------------------------|--------------------------|---------------------|

    F#m7       B7           Gmaj7      F#m7          Bm7         E9         
e|-----------------------|------------------------|--------2---------------|
B|-------5-----4---------|--------3---------------|-----3----------3-------|
G|----2------------------|-------------------2----|--2--------1----------0-|
D|-----------------------|-----4----------2-------|--0---------------------|
A|-------------2------2--|------------------------|------------------------|
E|----------2------------|--3----------2----------|------------------------|

    Em9         Gmaj7/A      Dmaj9       D             Bm          F#+5         
e|--2----------------2----|--0--------2-------3h2---|--------2-----------2-----|
B|-----3-----3------------|-----2-------------------|-----3-----------3--------|
G|--------0-------0-------|--------2-----2----------|--4--------4--3--------3--|
D|------------------------|--0----------------------|-----------------------4--|
A|------------------------|-------------------------|--2-----------2-----------|
E|------------------------|-------------------------|-----------2--------------|

    Bm7         E7            Em9      Asus4A    C     G(addA)D               
e|-------2-----------0-----|--2------------------0--|---------2-------3h2----|
B|-----3-----------3-------|-----3-----3----2----1--|----3----3----3------3--|
G|--2--------2--1----------|--------0------------2--|----2----2--------------|
D|-------------------------|------------------------|--------------0---------|
A|--2----------------------|------------------------|------------------------|
E|-------------------------|------------------------|------------------------|

    Bm          F#+5/B         Bm7         E9              Em9         AsAs4  C   
e|--------2-----------2-----|--------2-----------0------|--2------------------0--|
B|-----3-----3-----3-----3--|-----3-----------0---------|-----3-----3----2----1--|
G|--4-----------3-----------|--2--------2--1--------1-0-|--------0------------0--|
D|--------------------------|---------------------------|------------------------|
A|--2-----------------------|---------------------------|------------------------|
E|--------------------------|---------------------------|------------------------|

               G(addA)                                     Em9        Gmaj7/A     
e|---------------3-------|--3---3--3--------------------|----------2-------------|
B|-----------0-----------|--2-0-2--0--------------------|-------3-------3--------|
G|----0----2----------0--|------------------------------|----0-------------0---2-|
D|-----------------------|------------0-------0--2-0----|------------------------|
A|-----------------------|--------------0-0-2--------2--|------------------------|
E|-----------------------|------------------------------|------------------------|

    Dmaj9       B7-9         Em9         Gmaj7/A       F#m7        B7           
e|--0---------------------|-------------------------|--------------------------|
B|-----2-----1--------1---|--------3-----------3----|--------5-----4-----------|
G|--------2------2--------|-----0-----------0-------|--------------------2-----|
D|------------------------|-------------------------|-----2-----2-----4--------|
A|------------------------|--------------0----------|--------------2--------2--|
E|------------------------|--0--------0-------------|--2--------2--------------|

    Gmaj7       F#m7            Bm7         E9          Em9        Asus4 A     
e|---------------------------|--------2--------------|--------2---------------|
B|--------3------------------|-----3----------3------|-----3-----3------------|
G|--------------------2------|--2--------1-----------|-----------------0------|
D|-----4-----------2-----2-0-|-----------------------|------------------------|
A|---------------------------|--2--------------------|--------------0---------|
E|--3--------3--2------------|-----------0-----------|--0--------0------------|

    D/C                     Gmaj7     D/F#         Bm7          E9           
e|--2---5-3h2------------|----------------------|-------2-------------2-----|
B|--3---------3----------|--3----3----3----3----|-----3---3-----3-----------|
G|-----------------------|--0----0--------------|--2--------1------1------0-|
D|-----------------------|------------4----4----|---------------------------|
A|--3--------------------|----------------------|---------------------------|
E|-----------------------|----------------------|---------------------------|

   Em9         Gmaj7/A     Dmaj9                                          
e|--2--------------------|--0----------------|----------------------------|
B|-----3-----3-----------|--2----------------|----------------------------|
G|--------0-------0------|--2----------------|------------2--4-2----2--4--|
D|-----------------------|-------------------|----0-0-2/4--------4--------|
A|-----------------------|-------------------|----------------------------|
E|-----------------------|-------------------|----------------------------|

    Em9       Gmaj7/A      Dmaj9      B7-9         Em9       Gmaj7/A    
e|--2----2----2--2------|--0--0------------2----|--------2------2------|
B|--3----3----3--3------|--2--2----1----2--2----|-----3------------2---|
G|--0----0----0--0------|--2--2----2----2--2----|----------------------|
D|----------------------|----------0----0-------|----------------------|
A|----------------------|-----------------------|----------------------|
E|----------------------|-----------------------|----------------------|

    Dmaj9       B7-9       Em9       Gmaj7/A       Dmaj9  B7-9        
e|----0-----------------|------------2----------|--0-----------------|
B|------2----1----------|-----3---------3-------|--2------1----------|
G|--------2-------------|--------0---------0----|--2------2----------|
D|----------------------|-----------------------|---------1----------|
A|----------------------|-----------------------|--------------------|
E|----------------------|-----------------------|--------------------|

    Dmaj7        Gmaj7/C    Dmaj7       Gmaj7/C                         
e|------------2----------|--0--------2-------------|------------------||
B|------3--------3-------|-----2--------3----------|------------------||
G|---------0--------2----|--------2--------0-------|------------------||
D|-----------------------|-------------------------|------------------||
A|-----------------------|--------------------3----|------------------||
E|-----------------------|-------------------------|------------------||



---------------------------------------------
---------------------------------------------





Comments


Popular James Taylor tabs & chords
I Was A Fool To Care Chords
Jump Up Behind Me Chords
Machine Gun Kelly 1 Chords
Sarah Maria Chords
Shed A Little Light Chords
Water Is Wide 2 Chords
Water Is Wide 3 Chords
Isn't It Nice To Be Home Again Tabs
Knocking Around The Zoo Tabs
Sweet Baby James 1 Tabs


Song lyrics



↑ Back to top | Tablatures and chords are parodies/interpretations of the original songs. You may use it for private study, scholarship, research or language learning purposes only
© 2014 AZChords.com Contact us | Privacy policy | DMCA | Add/correct tabs | Request tabs | Top 50 tabs