» » »

James Brown, Soul Man Tabs (ver.2)

Artists:  A B C D E F G H I J K L M N O P Q R S T U V W X Y Z # 

Soul Man Tabs (ver.2)

James Brown Tabs
 Rating:
4/5 (4 votes)
Soul Man lessons Tabs too difficult? Try these video lessons and learn fast
1
                Intro:

e-----------------------------------------------------
b----5----5\3----3----------8---8--------10--------12-
g-----------------------------------------------------
d--5----5------3----3--3/8----8----8/10------10/12----
a-----------------------------------------------------
E-----------------------------------------------------

Verse:

(repeat)

e--8--8--9/12--12--10--8---
b--8--8--------------------
g--9--9--9/12--12--10--9---
d--------------------------
a--------------------------
E--------------------------

Chorus:

C Bb C
C Bb C 

Verse Again

Chorus Again

Bridge Part:

Ab Eb F# G Ab

Then, Play Intro Half Step Higher

Db B Db Till finish
            
Submit corrections

comments powered by Disqus
↑ Back to top | James Brown Tabs for Soul Man. Lyrics for acoustic guitar and electric guitar. 1 Tablatures and chords are parodies/interpretations of the original songs. You may use it for private study, scholarship, research or language learning purposes only