» » »

Sex Machine Tabs (ver.3)

Artists:  A B C D E F G H I J K L M N O P Q R S T U V W X Y Z # 

Sex Machine Tabs (ver.3)

James Brown
Rating:
3/5 (2 votes)

Hard to play? Try these video lessons and learn fast.
                James Brown
Sex Machine

/ = Slide
X = mute

E------------------------9---|
B----6------/7-----X-----7---|
G----6------/7-----X-----7---|
D----5------/6-----X-----7---|
A----6------/7-----X-----7---|
E----------------------------|

When you "Take it to the bridge" Play:

E---14----12---------12----13----14---|
B---12----12----X----10----11----12---|
G---12----12----X----10----11----12---|
D---12----12----X----10----11----12---|
A---12----12----X----10----11----12---|
E-------------------------------------|
            
Hard to play? Try these video lessons and learn fast. | Correct




comments powered by Disqus
↑ Back to top | Tablatures and chords are parodies/interpretations of the original songs. You may use it for private study, scholarship, research or language learning purposes only