>
 >
Goodbye My Lover 1

Goodbye My Lover 1 Guitar Tabs

James Blunt - Goodbye My Lover 1 chords, tabs, tablatures, lyrics

Guitar lessons | Add/correct | Request | Top 50 tabs Artists:  A B C D E F G H I J K L M N O P Q R S T U V W X Y Z 0-9

Goodbye My Lover 1 Guitar Tabs – James Blunt

CD, Sheet music, Poster

Do you like Goodbye My Lover 1? Share with your friends now
ChordsChords v2Chords v3Chords v4Chords v5Chords v6Chords v7TabsTabs v2Ukulele
1  E        C#m      A        A   E
E|--------|--------|--------|-----------|
B|--------|--------|--------|-----------|
G|-1------|-1------|-2------|-2---1-----|
D|-2--2-1-|-2--2-1-|-2----2-|-2-2-2-4-2-|
A|-2------|-4------|-4--4---|-4---------|
E|--------|--------|--------|-----------|


5  E            C#m      A       A   E
 |------------|--------|-------|-----------|
 |-0----0-----|--------|-0-----|-----------|
 |-1----------|-1------|-------|-2-2-1-----|
 |-2--2---2-1-|-2------|---2---|-2---2-4-2-|
 |------------|---4--4-|-----4-|-----------|
 |------------|--------|-------|-----------|


9  E      C#m A   A   E     
 |------|---|---|-----------|
 |------|---|---|-----------| 
 |-1----|-1-|-2-|---2-1-----|
 |-2--2-|-2-|-2-|-2---2-4-2-|
 |-2----|-4-|-4-|-4---------|
 |------|---|---|-----------|
“Did I disappoint you [...] or let the judges frown?”


14 E      C#m    G#m      A   E
 |------|------|--------|---------|
 |-0----|------|--------|---------|
 |------|-1----|----2---|---2-1---|
 |-2--1-|-2----|-1----2-|-----2-4-|
 |------|-4--4-|-2------|-4-------|
 |------|------|--------|---------|
“Cause I saw the end [...] I knew I had won.”


19 E        C#m      A       A   E
 |--------|---------|-------|-----------|
 |------0-|------0--|-------|-----------|
 |-1------|-1-------|2------|---2-1-----|
 |-2--2---|-2--2---2|--2----|-2---2-4-2-|
 |-2------|-4-------|-----4-|-----------|
 |--------|---------|-------|-----------|
“So I took what’s mine [...] into the night.”


24 E      C#m    G#m      A   E
 |------|------|--------|-----------|
 |------|------|--------|-----------|
 |-1----|------|----2-1-|-2-2-1-----|
 |-2--1-|-2----|-1------|-2---2-4-2-|
 |-2----|-4--4-|-2------|-4---------|
 |------|------|--------|-----------|
“It may be over [...] if you’d only care”


29 E        C#m      A        A  E
 |--------|--------|--------|----------|
 |--------|--------|--------|----------|
 |-1-2-1--|-1-2-1--|-2-4-2--|-2--1-----|
 |-2------|-2------|-2------|-2--2-4-2-|
 |-2------|-4------|-4------|----------|
 |--------|--------|--------|----------|
“You touched my heart [...] was blinded by you.”


34 E                C#m              G#m           A   E
 |----------------|----------------|-------------|---------|
 |----------------|----------------|-------------|---------|
 |-1------2-1---1-|-1------2-1---1-|--------2--1-|-2-2-1---|
 |-2--2-------2---|-2--2-------2---|-1--1--------|-2---2-4-|
 |-2----2---------|-4----4---------|-2----2------|-4---2---|
 |----------------|----------------|-------------|---------|
“I’ve kissed your lips [...] I’ve been addicted to you.“


39 E   C#m A   A  E       E   C#m A   A  E
 |---|---|---|----------|---|---|---|---------|
 |---|---|---|----------|---|---|---|---------|
 |-1-|-1-|-2-|-2--1-----|-1-|-1-|-2-|-2--2--1-|
 |-2-|-2-|-2-|-2--2-4-2-|-2-|-2-|-2-|-2--2----|
 |-2-|-4-|-4-|-4--2-----|-2-|-4-|-4-|-4--2----|
 |---|---|---|----------|---|---|---|---------|
(2x) “Goodbye my lover [...] been the one for me” 


49 E       A
 |---0---|--------|
 |-------|--------|
 |-1-----|----2-1-|
 |-----2-|--------|
 |-------|-0------|
 |-------|--------|


51 E        C#m       A   A   E
 |--------|---------|---|---------|
 |--------|---------|---|---------|
 |-1--1-1-|---1-----|-2-|---2-1---|
 |-2------|-2-----2-|-2-|-----2-4-|
 |-2------|-4---4---|-4-|-4-------|
 |--------|---------|---|---------|
“I’m a dreamer [...] it’s my dreams you take”


56 E           C#m         G#m         A  E
 |-----------|-----------|---------|----------|
 |------0----|------0----|---------|----------|
 |-1---------|-1---------|---------|-2--1-----|
 |-2--2----2-|-2--2----2-|-1-------|-2--2-4-2-|
 |-2---------|-4---------|-2--2--2-|----------|
 |-----------|-----------|---------|----------|
“And as you move on [...] all we used to be.”


61 E         C#m       A         A   E
 |---------|---------|---------|---------|
 |---------|---------|---------|---------|
 |-1-2-1---|-1-2-1---|-2-4-2---|-2-2-1---|
 |-2-----2-|-2-----2-|-2-----2-|-2---2-4-|
 |-2-------|-4-------|-4-------|---------|
 |---------|---------|---------|---------|
“I’ve seen you cry [...] a lifetime with you.”


66 E                C#m              G#m           A   E
 |----------------|----------------|-------------|---------|
 |----------------|----------------|-------------|---------|
 |-1------2-1---1-|-1------2-1---1-|--------2--1-|-2-2-1---|
 |-2--2-------2---|-2--2-------2---|-1--1--------|-2---2-4-|
 |-2----2---------|-4----4---------|-2----2------|-4---2---|
 |----------------|----------------|-------------|---------|
“I know your fears [...] cannot live without you.”


71 E   C#m A   A  E       E   C#m A   A  E
 |---|---|---|----------|---|---|---|---------|
 |---|---|---|----------|---|---|---|---------|
 |-1-|-1-|-2-|-2--1-----|-1-|-1-|-2-|-2--2--1-|
 |-2-|-2-|-2-|-2--2-4-2-|-2-|-2-|-2-|-2--2----|
 |-2-|-4-|-4-|-4--2-----|-2-|-4-|-4-|-4--2----|
 |---|---|---|----------|---|---|---|---------|
(2x) “Goodbye my lover [...] been the one for me.”


79 E      A          E          B
 |------|----------|----------|--------|
 |------|----------|----------|--------|
 |-1----|-2--------|-1--------|--------|
 |-2--2-|-2--2---2-|-2-2----2-|----1-4-|
 |-2----|-4----4---|-2---2----|-2------|
 |------|----------|----------|--------|


84 A      B      C#m      G#m
 |------|------|--------|-------|
 |------|------|--------|-------|
 |-2----|------|-1--1---|---1---|
 |-2--2-|-1----|-2----2-|-1---1-|
 |-4----|-2--2-|-4------|-2-----|
 |------|------|--------|-------|
“And I still [...] when I’m asleep.”


89 A        C#m      G#m    A  B
 |--------|--------|------|----------|
 |--------|--------|------|----------|
 |-2------|----1---|------|-2--1-----|
 |-2--2---|-2----2-|-1--1-|-2----4---|
 |-4----4-|-4------|-2----|-4------2-|
 |--------|--------|------|----------|
“And I will [...] kneeling at your feet.”


94 E   C#m A   A  E       E   C#m A   A  E
 |---|---|---|----------|---|---|---|---------|
 |---|---|---|----------|---|---|---|---------|
 |-1-|-1-|-2-|-2--1-----|-1-|-1-|-2-|-2--2--1-|
 |-2-|-2-|-2-|-2--2-4-2-|-2-|-2-|-2-|-2--2----|
 |-2-|-4-|-4-|-4--2-----|-2-|-4-|-4-|-4--2----|
 |---|---|---|----------|---|---|---|---------|
(2x) “Goodbye my lover [...] been the one for me.”


104 E             C#m            G#m         A   E
 |--------------|--------------|-----------|-----------|
 |--------------|--------------|-----------|-----------|
 |-1----2-1---1-|-1----2-1---1-|------2--1-|-2---1-----|
 |-2--2-----2---|-2--------2---|-1---------|-2-2-2-4-2-|
 |-2------------|-4--4---------|-2--2------|-4---------|
 |--------------|--------------|-----------|-----------|
“I’m so hollow, baby [...] I’m so hollow.”


109 E             C#m            G#m         A   E
 |--------------|--------------|-----------|-----------|
 |--------------|--------------|-----------|-----------|
 |-1----2-1---1-|-1----2-1---1-|------2--1-|-2---1-----|
 |-2--2-----2---|-2--------2---|-1---------|-2-2-2-4-2-|
 |-2------------|-4--4---------|-2--2------|-4---------|
 |--------------|--------------|-----------|-----------|
“I’m so hollow, baby [...] I’m so hollow.”


114 E       C#m        A      A   E
 |--------|----------|------|-----------|
 |------0-|------0---|----0-|-----------|
 |-1------|----------|-2----|-2-2-1-----|
 |-2--2---|----2-----|-2----|-2---2-4-2-|
 |-2------|-4------4-|-4----|-4---------|
 |--------|----------|------|-----------|


119 E
 |---|
 |---|
 |-1-|
 |-2-|
 |-2-|
 |---|





Comments


Popular James Blunt tabs & chords
Annie 3 Chords
Best Laid Plans 1 Chords
Billy 3 Chords
Cry 3 Chords
Same Mistake 3 Chords
Stay The Night 1 Chords
Wisemen Tabs
Youre Beautiful 5 Tabs
Give Me Some Love Ukulele
In Flowers Ukulele


Song lyrics



↑ Back to top | Tablatures and chords are parodies/interpretations of the original songs. You may use it for private study, scholarship, research or language learning purposes only
© 2014 AZChords.com Contact us | Privacy policy | DMCA | Add/correct tabs | Request tabs | Top 50 tabs