» » »

Goodbye My Lover Tabs (ver.1)

Artists:  A B C D E F G H I J K L M N O P Q R S T U V W X Y Z # 

Goodbye My Lover Tabs (ver.1)

James Blunt
Rating:
3/5 (8 votes)

Hard to play? Try these video lessons and learn fast.
                "James Blunt
Goodbye my lover (arpèges)

Intro : 

    D              Bm               G             A
E|--2--------2-0--|--2--------2-0--|--3--------3--|---0--------0---|
B|-----3----------|-----3----------|-----3--------|---------2------|
G|--------2-------|--------4-------|--------0-----|------2---------|
D|--0-------------|--4-------------|-----0--------|---2------------|
A|-----0----------|-----2----------|--------------|----------------|
E|----------------|----------------|--3-----------|----------------|


1er couplet :

    D              		Bm               
E|--2----------2-0--|--2--------2-0--|
B|-------3----------|-----3----------|
G|----------2-------|--------4-------|
D|--0---------------|--4-------------|
A|-------0----------|-----2----------|
E|------------------|----------------|

Did I disappoint you, or let you down?
 
  G		   	A
E|--3--------3---------|---0--------0---|
B|-----3---------------|---------2------|
G|--------0------------|------2---------|
D|-----0---------------|---2------------|
A|---------------------|----------------|
E|--3------------------|----------------|

Should I be feeling guilty, or let the judges frown?

 D              Bm              
E|--2-------2-0---|--2-------2-0--|
B|-----3----------|-----3---------|
G|--------2-------|--------4------|
D|--0-------------|--4------------|
A|------0---------|-----2---------|
E|----------------|---------------|

'Cause I saw the end, before we'd begun

  F#m 		    G           A
E|--2-------------|--3--------|--0-----0--|
B|------2------2--|-----3-----|-----------|
G|----------0-----|--------0--|-----2-----|
D|------4---------|-----2-----|--2--------|
A|--4-------------|--3--------|-----------|
E|----------------|-----------|-----------|

Yes I saw you were blinded, and i knew I had won

    D              	  Bm               
E|--2----------2-0--|--2--------2-0--|
B|-------3----------|-----3----------|
G|----------2-------|--------4-------|
D|--0---------------|--4-------------|
A|-------0----------|-----2----------|
E|------------------|----------------|

So I took what's mine by eternal right

  G		   	A
E|--3--------3---------|---0--------0---|
B|-----3---------------|---------2------|
G|--------0------------|------2---------|
D|-----0---------------|---2------------|
A|---------------------|----------------|
E|--3------------------|----------------|

Took your soul out into the night

  D              Bm              
E|--2-------2-0---|--2-------2-0--|
B|-----3----------|-----3---------|
G|--------2-------|--------4------|
D|--0-------------|--4------------|
A|------0---------|-----2---------|
E|----------------|---------------|

It may be over but it won't stop there

 F#m 		    G           A
E|--2-------------|--3--------|--0-----0--|
B|------2------2--|-----3-----|-----------|
G|----------0-----|--------0--|-----2-----|
D|------4---------|-----2-----|--2--------|
A|--4-------------|--3--------|-----------|
E|----------------|-----------|-----------|

I am here for you if you'd only care


Pré-chorus :

    D              		            
E|--2----------2-0--|
B|-------3----------|
G|----------2-------|
D|--0---------------|
A|-------0----------|
E|------------------|

You touched my heart, you touched my soul

	G
|--3--------3--|
|--------0-----|
|--------0-----|
|-----0--------|
|--------------|
|--------------|
|--3-----------|

You changed my life and all my goals

              

And love is blind and that i knew when

     G           A
E|--3--------|--0-----0--|
B|-----3-----|-----------|
G|--------0--|-----2-----|
D|-----2-----|--2--------|
A|--3--------|-----------|
E|-----------|-----------|

My heart was blinded by you

    D              		             
E|--2----------2-0--|
B|-------3----------|
G|----------2-------|
D|--0---------------|
A|-------0----------|
E|------------------|

I've kissed your lips and held your head

	Bm
E|--2--------2-0--|
B|-----3----------|
G|--------4-------|
D|--4-------------|
A|-----2----------|
E|----------------|

Shared your dreams and shared your bed
    
 F#m

|--2-------------|
|------2------2--|
|----------0-----|
|------4---------|
|--4-------------|
|----------------|

I know you well, i know your smell
  
  G            A
E|--3--------|--0-----0--|
B|-----3-----|-----------|
G|--------0--|-----2-----|
D|-----2-----|--2--------|
A|--3--------|-----------|
E|-----------|-----------|

I've been addicted to you


Refrain :

    D              		Bm               
E|--2----------2-0--|--2--------2-0--|
B|-------3----------|-----3----------|
G|----------2-------|--------4-------|
D|--0---------------|--4-------------|
A|-------0----------|-----2----------|
E|------------------|----------------|

Goodbye my lover, goodbye my friend
 
 F#m 		    G           A
E|--2-------------|--3--------|--0-----0--|
B|------2------2--|-----3-----|-----------|
G|----------0-----|--------0--|-----2-----|
D|------4---------|-----2-----|--2--------|
A|--4-------------|--3--------|-----------|
E|----------------|-----------|-----------|

You have been the one, you have been the one for me.

   D              		Bm               
E|--2----------2-0--|--2--------2-0--|
B|-------3----------|-----3----------|
G|----------2-------|--------4-------|
D|--0---------------|--4-------------|
A|-------0----------|-----2----------|
E|------------------|----------------|

Goodbye my lover, goodbye my friend
   
  F#m 		    G           A
E|--2-------------|--3--------|--0-----0--|
B|------2------2--|-----3-----|-----------|
G|----------0-----|--------0--|-----2-----|
D|------4---------|-----2-----|--2--------|
A|--4-------------|--3--------|-----------|
E|----------------|-----------|-----------|

You have been the one, you have been the one for me.



2ème couplet (idem au niveau des notes)

I am a dreamer but when I wake
You can't break my spirit - it's my dreams you take
And as you move on, remember me
Remember us and all we used to be

2ème pré-chorus :

I've seen you cry, I've seen you smile
I've watched you sleeping for a while
I'd be the father of your child
I'd spend a lifetime with you
I know your fears and you know mine
We've had our doubts but now we're fine
And I love you, I swear that's true
I cannot live without you


Refrain :

Goodbye my lover, goodbye my friend,
You have been the one, you have been the one for me.
Goodbye my lover, goodbye my friend,
You have been the one, you have been the one for me.


Pont : 
  
   G           A	   Bm
E|--3--------|--0-----0--|--2--------2-0--|
B|-----3-----|-----------|-----3----------|
G|--------0--|-----2-----|--------4-------|
D|-----2-----|--2--------|--4-------------|
A|--3--------|-----------|-----2----------|
E|-----------|-----------|----------------|

And I still hold your hand in mine

 F#m
|--2-------------|
|------2------2--|
|----------0-----|
|------4---------|
|--4-------------|
|----------------|

In mine when I'm asleep
  
  G            Bm               F#m
E|--3--------|--2--------2-0--|--2-------------|
B|-----3-----|-----3----------|------2------2--|
G|--------0--|--------4-------|----------0-----|
D|-----2-----|--4-------------|------4---------|
A|--3--------|-----2----------|--4-------------|
E|-----------|----------------|----------------|

And I will,   bear my soul in  time


Refrain :

Goodbye my lover, goodbye my friend,
You have been the one, you have been the one for me.
Goodbye my lover, goodbye my friend,
You have been the one, you have been the one for me.

Et on fini par :

    D              		Bm               
E|--2----------2-0--|--2--------2-0--|
B|-------3----------|-----3----------|
G|----------2-------|--------4-------|
D|--0---------------|--4-------------|
A|-------0----------|-----2----------|
E|------------------|----------------|

I'm so hollow, baby, I'm so hollow
 
 F#m 		    G           A
E|--2-------------|--3--------|--0-----0--|
B|------2------2--|-----3-----|-----------|
G|----------0-----|--------0--|-----2-----|
D|------4---------|-----2-----|--2--------|
A|--4-------------|--3--------|-----------|
E|----------------|-----------|-----------|

I'm so, I'm so, I'm so hollow


    D              		Bm               
E|--2----------2-0--|--2--------2-0--|
B|-------3----------|-----3----------|
G|----------2-------|--------4-------|
D|--0---------------|--4-------------|
A|-------0----------|-----2----------|
E|------------------|----------------|

I'm so hollow, baby, I'm so hollow

 F#m 		    G           A
E|--2-------------|--3--------|--0-----0--|
B|------2------2--|-----3-----|-----------|
G|----------0-----|--------0--|-----2-----|
D|------4---------|-----2-----|--2--------|
A|--4-------------|--3--------|-----------|
E|----------------|-----------|-----------|

I'm so, I'm so, I'm so hollow.
"            
Hard to play? Try these video lessons and learn fast. | Correct




comments powered by Disqus
↑ Back to top | Tablatures and chords are parodies/interpretations of the original songs. You may use it for private study, scholarship, research or language learning purposes only