» » »

Waltzing Along Tabs (ver.1)

Artists:  A B C D E F G H I J K L M N O P Q R S T U V W X Y Z # 

Waltzing Along Tabs (ver.1)

James
Rating:
0/5 (0 votes)

Hard to play? Try these video lessons and learn fast.
                #



'Waltzing Along' by JAMES.  From the album 'WHIPLASH'


This is for the finest lady in the land.
"Gisele, you're more than just an e-mail friend!  A lot more!"


INTRO:
E|------8--/10--13--10--13--/15--13-----------------------13-----|
B|--10-------------------------------15--\13--/15-----15------15-|
G|---------------------------------------------------------------|
D|---------------------------------------------------------------|
A|---------------------------------------------------------------|
E|---------------------------------------------------------------|

E|------8--/10--13--10--13--/15--13----------------|
B|--10-------------------------------15--\13--/15--|
G|-------------------------------------------------|
D|-------------------------------------------------|
A|-------------------------------------------------|
E|-------------------------------------------------|


"WOODSTOCK, AUGUST 1994 LED US TO 'BLACK THURSDAY'.  WE DIDN'T DESERVE
THAT - ACCOUNTANTS, TAXMEN, LARRY LEAVING, TIM DECIDES TO MAKE HIS OWN
RECORD.  OK LET'S WRITE - AT FIRST JUST SCRATCHES BUT IT GREW.  WEIRD
AND GOOD.  TREATMENTS AND SAMPLERS WORKING OVERTIME.  NOW WE'RE ON TO
SOMETHING.  RAK NEXT WITH STEPHEN AND BRIAN.  THE SHAPE AND SOUND COME
AND WE'RE AT REAL WORLD WITH MACHINES EVERYWHERE.  THE SONGS ARE GOOD
AND WE LIKE EACH OTHER...                                (JAMES: 1997)"

Excerpt from the back of the special edition WHIPLASH album cover.


They're back, and it looks like they're back real hard!

Into James? Think they're cool? Got any views?


--
COOLPETE
            
Hard to play? Try these video lessons and learn fast. | Correct




comments powered by Disqus
↑ Back to top | Tablatures and chords are parodies/interpretations of the original songs. You may use it for private study, scholarship, research or language learning purposes only