» » »

James, Waltzing Along Bass tabs (ver.1)

Artists:  A B C D E F G H I J K L M N O P Q R S T U V W X Y Z # 

Waltzing Along Bass tabs (ver.1)

James Tabs
 Rating:
4/5 (4 votes)
Waltzing Along lessons Tabs too difficult? Try these video lessons and learn fast
                
Intro
G |-------------------------|
D |-------------------------|
A |-1--3--5--3-1--3--5--3-1-|
E |-------------------------|

Verse 1
G |----------------------------|
D |----------------------------|
A |-1--3--3--5--3-1--3--5--3-1-|
E |----------------------------|

G |-----------------------|
D |-----------------------|
A |-1--3--3--5--3-1--3--5-|
E |-----------------------|

Chorus
G |----------3-2-0-2-|----------3-2-0-2-|
D |-3-----5----------|-3-----5----------|
A |----3-------------|----3-------------|
E |------------------|------------------|

G |----------3-2-0-2-|----------3-2-0-2-|
D |-3-----5----------|-3-----5----------|
A |----3-------------|----3-------------|
E |------------------|------------------|

G |----------3----------|
D |-3-----5-----0-------|
A |----3--------------3-|
E |---------------------|

Verse 2
G |----------------------------|
D |----------------------------|
A |-1--3--3--5--3-1--3--5--3-1-|
E |----------------------------|

G |-----------------------|
D |-----------------------|
A |-1--3--3--5--3-1--3--5-|
E |-----------------------|

Verse 3
G |---------------------------|
D |----------3-2--------------|
A |-1--3--5------3-1--3--5--3-|
E |---------------------------|

G |------------------------|
D |----------3-2-----------|
A |-1--3--5------3-1--3--5-|
E |------------------------|


Chorus + Outro
G |----------3-2-0-2-|----------3-2-0-2-|
D |-3-----5----------|-3-----5----------|
A |----3-------------|----3-------------|
E |------------------|------------------|

G |----------3-2-0-2-|----------3-2-0-2-|
D |-3-----5----------|-3-----5----------|
A |----3-------------|----3-------------|
E |------------------|------------------|

G |----------3-2-0-2-|----------3-2-0-2-|
D |-3-----5----------|-3-----5----------|
A |----3-------------|----3-------------|
E |------------------|------------------|

G |----------3-2-0-2-|----------3-2-0-2-|
D |-3-----5----------|-3-----5----------| & repeat to fade
A |----3-------------|----3-------------| 
E |------------------|------------------|
            
Submit corrections

comments powered by Disqus
↑ Back to top | James Bass for Waltzing Along. Lyrics for acoustic guitar and electric guitar. Tablatures and chords are parodies/interpretations of the original songs. You may use it for private study, scholarship, research or language learning purposes only