» » »

James, She’S A Star Tabs (ver.2)

Artists:  A B C D E F G H I J K L M N O P Q R S T U V W X Y Z # 

She’S A Star Tabs (ver.2)

James Tabs
Rating:
0/5 (0 votes)
Hard to play? Try these video lessons and learn fast.
                
INTRO

GTR 1
E------------------------------------------------------------------------------
B------------------------------------------------------------------------------
G--------------4---------------5--------------7---------------------------4----
D--5-----------4---------------5--------------7-------------5-------------4----
A--5-----------2---------------3--------------5-------------5-------------2----
E--3--------------------------------------------------------3------------------
]
]GTR 2
]
E------------------------------------------------------------------------------
B---------------------------------------------------------/-15---15[17]---12---
G------------------------------5--------------7--------------------------------
D------------------------------5--------------7--------------------------------
A------------------------------3--------------5--------------------------------
E------------------------------------------------------------------------------

GTR 1
E------------------------------------------------------------------------------
B------------------------------------------------------------------------------
G--------5-------------7-----------------------------4-----------------5-------
D--------5-------------7---------------5-------------4-----------------5-------
A--------3-------------5---------------5-------------2-----------------3-------
E--------------------------------------3---------------------------------------
]
]GTR 2
]
E------------------------------------------------------------------------------
B--13-12-----------------------------/-15---15[17]---12----------13-12---------
G--------14-12---------9--7--------------------------------------------14-12---
D------------------------------------------------------------------------------
A------------------------------------------------------------------------------
E------------------------------------------------------------------------------

GTR 1
E------------------------------------------------------------------------------
B------------------------------------------------------------------------------
G----------7-------------------------------------------------------------------
D----------7-------------------------------------------------------------------
A----------5-------------------------------------------------------------------
E------------------------------------------------------------------------------
]
]GTR 2
]
E------------------------------------------------------------------------------
B------------------------------------------------------------------------------
G-----12/14--------------------------------------------------------------------
D------------------------------------------------------------------------------
A------------------------------------------------------------------------------
E------------------------------------------------------------------------------

VERSE

Both Gtrs
E------------------------------------------------------------------------------
B------------------------------------------------------------------------------
G*----------------4-------------5------------7-----------*---------------------
D*-5--------------4-------------5------------7-----------*---------------------
A--5--------------2-------------3------------5---------------------------------
E--3---------------------------------------------------------------------------

At the end of the first verse Gtr 2 plays this while Gtr 1 plays
Verse progression.

E------------------------------------------------------------------------------
B---/-15---15[17]---12----------13-12------------------------------------------
G-------------------------------------14-12--------12^14-----------------------
D------------------------------------------------------------------------------
A------------------------------------------------------------------------------
E------------------------------------------------------------------------------

PRE-CHORUS

Both Gtrs
E------------------------------------------------------------------------------
B------------------------------------------------------------------------------
G*--------------5-------------7------------7----------*------------------------
D*-7------------5-------------7------------7----------*------------------------
A--7------------3-------------5------------5-----------------------------------
E--5---------------------------------------------------------------------------

CHORUS/ENDING

GTR 1							ENDING
E------------------------------------------------------------------------------
B------------------------------------------------------------------------------
G*-------------4-----------5------------7------------*-------------------------
D*-5-----------4-----------5------------7------------*--5----------------------
A--5-----------2-----------3------------5---------------5----------------------
E--3----------------------------------------------------3----------------------
]
]GTR 2
]
E------------------------------------------------------------------------------
B------------------------------------------------------------------------------
G*-12/16----14-16-------14-16--14-12-----------------*-------------------------
D*--------------------------------------14-12--------*--5----------------------
A-------------------------------------------------------5----------------------
E-------------------------------------------------------3----------------------

BRIDGE

E--0-------------0--------------0----------------2-----------------------------
B--0-------------2--------------1----------------3-----------------------------
G*-0-------------2--------------0----------------2------------*----------------
D*-2-------------2--------------2----------------0------------*----------------
A--2-------------0--------------3-------------------------------5-5-5-5-5-5-5-5
E--0----------------------------0----------------------------------------------
								P.m------------
            

comments powered by Disqus
↑ Back to top | James Tabs for She’S A Star. Lyrics for acoustic guitar and electric guitar. Tablatures and chords are parodies/interpretations of the original songs. You may use it for private study, scholarship, research or language learning purposes only