» » »

James, She’S A Star Bass tabs (ver.1)

Artists:  A B C D E F G H I J K L M N O P Q R S T U V W X Y Z # 

She’S A Star Bass tabs (ver.1)

James Tabs
 Rating:
4/5 (4 votes)
She’S A Star lessons Tabs too difficult? Try these video lessons and learn fast
1
                SHE'S A STAR (bass tab)
  BY JAMES

  STANDARD TUNING (EADG)
  INTRO
  VERSE 1 AND 2:                                                             
                                                                             
       [X8]

      - Whenever she's feeling empty ...
      - Her shadow is always with her ...                                    
   [x8]
||--------------------------|-----------------|-----------------|------------------||
||*-------------------------|-----------------|-----------------|-----------------*||
||*-10-10-10-10-10-10-10-10-|-9-9-9-9-9-9-9-9-|-3-3-3-3-3-3-3-3-|-5-5-5-5-5-5-5-5-*||
||--------------------------|-----------------|-----------------|------------------||
    1     2     3     4       1   2   3   4     1   2   3   4     1   2   3  
  4


  PRE-CHORUS 1
                                                        ___________________
      - Oh no she knows where to hide...                |1
||------------------|-----------------|-----------------|------------------|
||*-----------------|-----------------|-----------------|-----------------*|
||*-0-0-0-0-0-0-0-2-|-3-3-3-3-3-3-3-3-|-5-5-5-5-5-5-5-5-|-3-3-3-3-3-3-3-3-*|
||------------------|-----------------|-----------------|------------------|

                    CHORUS 1
__________________
|2         She´s a star ...
|-----------------||--------------------------|-----------------|-----------------|
|-----------------||*-------------------------|-----------------|-----------------|
|-5-5-5-5-5-5-5-5-||*/10-10-10-10-10-10-10-10-|-9-9-9-9-9-9-9-9-|-3-3-3-3-3-3-3-3-|
|-----------------||--------------------------|-----------------|-----------------|

|------------------||
|-----------------*||
|/5-5-5-5-5-5-5-5-*||
|------------------||


   VERSE 3 - She's been in disguise forever ... (SAME AS VERSES 1 AND 2)

   PRE-CHORUS 2 - Oh no she knows where to hide in the dark ... (SAME AS 
PRE-CHORUS 1)

   CHORUS 2 - She's a star ... (SAME AS CHORUS 1)

   BRIDGE:
                                                      __________________
   - Don't tell her to turn down ...                  |1
|-----------------|-----------------|-----------------|-----------------|
|-----------------|-----------------|-----------------|-----------------|
|-7-7-7-7-7-7-7-7-|-0-0-0-0-0-0-0-0-|-3-3-3-3-3-3-3-3-|-5-5-5-5-5-5-5-5-|
|-----------------|-----------------|-----------------|-----------------|
___________________
|2        She's a
|-----------------|
|-----------------|
|-5-5-5-5-5-5-5-5-|
|-----------------|


   CHORUS 3 - (SAME AS CHORUS 1 AND 2)

   VERSE 4 & END:

   - It's a long road , it's a great cause
||--------------------------|-----------------|-------------------------|
||*-------------------------|-----------------|/10-10-10-10-10-10-10-10-|
||*-10-10-10-10-10-10-10-10-|-9-9-9-9-9-9-9-9-|-------------------------|
||--------------------------|-----------------|-------------------------|

|--------------------------||-------------|
|-12-12-12-12-12-12-12-12-*||-------------|
|-------------------------*||-------------|
|--------------------------||-----\3------|


BY EL FER
            
Submit corrections

comments powered by Disqus
↑ Back to top | James Bass for She’S A Star. Lyrics for acoustic guitar and electric guitar. 1 Tablatures and chords are parodies/interpretations of the original songs. You may use it for private study, scholarship, research or language learning purposes only