» » »

Batman Tabs (ver.1)

Artists:  A B C D E F G H I J K L M N O P Q R S T U V W X Y Z # 

Batman Tabs (ver.1)

Jam
Rating:
0/5 (0 votes)

Hard to play? Try these video lessons and learn fast.
                Intro X4  
-7---7---6---6---5---5---6---6------------------------------------------------
-5---5---4---4---3---3---4---4------------------------------------------------
                                                                    
Chorus X3
-7-7-6-6-5-5-6-6-7-7-6-6-5-5-6-6-7-7-6-6-5-5-6-6-7-7-6-6-5-5-6---5-5-4-4-3-3--
-5-5-4-4-3-3-4-4-5-5-4-4-3-3-4-4-5-5-4-4-3-3-4-4-5-5-4-4-3-3-4-0--------------
                                                                              

-6-6-7-7-6-6-5-5-6-----------------------------------9-9-8-8-7-7-8-8-7-7-6-6--
-4-4-5-5-4-4-3-3-4-0-7-7-6-6-5-5-6-6-7-7-6-6-5-5-6---7-7-6-6-5-5-6-6-5-5-4-4--
---------------------5-5-4-4-3-3-4-4-5-5-4-4-3-3-4-0--------------------------
                                                                              

-5-5-4------------------------------------------------------------------------
-3-3-4-0-7-7-6-6-5-5-6-6-7-7-6-6-5-5-6-6--------------------------------------
---------5-5-4-4-3-3-4-4-5-5-4-4-3-3-4-4--------------------------------------
                                                                     
Chorus 4 
-7--7--6--6--5--5--6--6--7--7--6--6--5--5--6--6--7-7-6-6-5-5-6-6-7----7---7---
-5--5--4--4--3--3--4--4--5--5--4--4--3--3--4--4--5-5-4-4-3-3-4-4-5----5---5---
            
Hard to play? Try these video lessons and learn fast. | Correct




comments powered by Disqus
↑ Back to top | Tablatures and chords are parodies/interpretations of the original songs. You may use it for private study, scholarship, research or language learning purposes only