» » »

Jam, Art School Bass tabs (ver.1)

Artists:  A B C D E F G H I J K L M N O P Q R S T U V W X Y Z # 

Art School Bass tabs (ver.1)

Jam Tabs
 Rating:
4/5 (5 votes)
Art School lessons Tabs too difficult? Try these video lessons and learn fast
1
                			     Art School - The Jam


Tuning:normal
 intro 
G|----------|
D|----------|
A|----------|
E|-5-3-2-0--|
 main riff
G|-------------------------------------------------------------|
D|--------------------------------------------------5----------|
A|-------5--5-5--------5--5-5---------5--5-5-7--7-7----7-------|
E|5--5-5-------5--5-5---------5--5-5---------------------------|
  bridge
G|-------------------------------|       |--------------------------------|
D|-------------------------------|3 times|-----------------5--------------|
A|----------------5-5-5-5-5-5-5-5|       |-7-7-7-7-7-7-7-7---7------------|
E|2-2-2-2-2-2-2-2----------------|       |--------------------------------|
 outro
G|-----------|
D|-----------|
A|-----------|
E|-5-3-2-1-0-|
            
Submit corrections

comments powered by Disqus
↑ Back to top | Jam Bass for Art School. Lyrics for acoustic guitar and electric guitar. 1 Tablatures and chords are parodies/interpretations of the original songs. You may use it for private study, scholarship, research or language learning purposes only