» » »

Jam, Art School Tabs (ver.1)

Artists:  A B C D E F G H I J K L M N O P Q R S T U V W X Y Z # 

Art School Tabs (ver.1)

Jam Tabs
Rating:
5/5 (1 vote)
Art School lessons Tabs too difficult? Try these video lessons and learn fast
                Hey i've tabbed this from scratch.The other version that i had i just tabbed from ear with-out actully picking up a guitar.So this is how it's actully play am pretty sure its 100% correct
                          The Jam - Art School

INTRO
e|-----0-----3-----2-----0-----||
B|-----2-----0-----3-----0-----||
G|-----2-----0-----2-----1-----||
D|-----2-----0-----0-----2-----||
A|-----0-----2-----------2-----||
E|-----------3-----------0-----||

VERSE
e|-----5-5-5---5-5-5---5-5-5---5-5-5---5-5-5---5-5-5---7-7-7----------||
B|-----5-5-5---7-7-7---5-5-5---7-7-7---5-5-5---7-7-7---9-9-9---8b-----||
G|-----6-6-6---7-7-7---6-6-6---7-7-7---6-6-6---7-7-7---9-9-9------9---||
D|-----7-7-7---7-7-7---7-7-7---7-7-7---7-7-7---7-7-7---9-9-9----------||
A|-----7-7-7---5-5-5---7-7-7---5-5-5---7-7-7---5-5-5---7-7-7----------||
E|-----5-5-5-----------5-5-5-----------5-5-5--------------------------||

CHORUS
e|-----2---3---2---3---2---3------------------------------------------||
B|-----3---0---3---0---3---0---<----------palm muted---------->--8b---||
G|-----4---0---4---0---4---0---7-7-7-7-7-7-7-7--9-9-9-9-9-9-9-9-----9-||
D|-----4---0---4---0---4---0---7-7-7-7-7-7-7-7--9-9-9-9-9-9-9-9-------||
A|-----2---2---2---2---2---2---5-5-5-5-5-5-5-5--7-7-7-7-7-7-7-7-------||
E|---------3-------3-------3------------------------------------------||

OUTRO
e|---5-5-5---5-5-5---5-5-5----------5-5-5---5-5-5---5-5-5---0---3---2---0---0---||
B|---5-5-5---7-7-7---5-5-5---8b-----5-5-5---7-7-7---5-5-5---2---0---3---0---2---||
G|---6-6-6---7-7-7---6-6-6------9---6-6-6---7-7-7---6-6-6---2---0---2---1---2---||
D|---7-7-7---7-7-7---7-7-7----------7-7-7---7-7-7---7-7-7---2---0---0---2---2---||
A|---7-7-7---5-5-5---7-7-7----------7-7-7---5-5-5---7-7-7---0---2-------2---0---||
E|---5-5-5-----------5-5-5----------5-5-5-----------5-5-5-------3-------0-------||

Thats everything in the song, the order of the song is really easy so i cant be bothered writing it all out.Feel free to make any comments and rate this!
            

comments powered by Disqus
↑ Back to top | Jam Tabs for Art School. Lyrics for acoustic guitar and electric guitar. Tablatures and chords are parodies/interpretations of the original songs. You may use it for private study, scholarship, research or language learning purposes only