» » »

Yaqeen Chords (ver.1)

Artists:  A B C D E F G H I J K L M N O P Q R S T U V W X Y Z # 

Yaqeen Chords (ver.1)

Jal
Rating:
0/5 (0 votes)

Hard to play? Try these video lessons and learn fast.
                D A
----2----2---------0-----0-------|
------3----3--------2------2-----|
--2----2-----2----2----2-----2---|
-0--------------2----------------|
---------------------------------|
---------------------------------|

D A
----2----2--------0-----0------|
------3----3--------2------2---|
--2----2-----2----2----2-----2-|
-0--------------2--------------|
-------------------------------|
-------------------------------|

The strum D


D G
Aaj dil dukha hai
A D
tum yaad ayee
D G
anjanay loog hain
A D
apnay kahan dhond payain


D E
jagay hain soyee nahe
G A D
aiseehai meree yeh baychanee
D E
din bhee wohi raatien wohi
G A D
saansoun main saansain hain nahee


A D A D G G A D
hmm hmmmm hmmhmmm hmm hmm hmm hmm hmm hmm hmm

0-2----0-2-3-5-0------3-2-0-----0--2----------|
-------------------------------------3--------|
----------------------------------------------|
----------------------------------------------|
----------------------------------------------|
----------------------------------------------|

D E
shamain abb dhalte nahe
G A D
aanchal jo tera simat jayee
D E
aap yahan hamesha rahain
G A D
duri rahay na hoon faaslay

A D A D G G A D
hmm hmmmm hmmhmmm hmm hmm hmm hmm hmm hmm hmm

A D A D G G A D
hmm hmmmm hmmhmmm hmm hmm hmm hmm hmm hmm hmm

SOLO

D E
jagay hain soyee nahe
G A D
aiseehai meree yeh baychanee
D E
din bhee wohi raatien wohi
G A D
saansoun main saansain hain nahee


A D A D G G A D
hmm hmmmm hmmhmmm hmm hmm hmm hmm hmm hmm hmm

A D A D G G A D
hmm hmmmm hmmhmmm hmm hmm hmm hmm hmm hmm hmm


D E
abb agar tum milay too
G A D
itna yaqeen hai
D E
hans dayen gay humto
G A D
roona nahe hai
            
Hard to play? Try these video lessons and learn fast. | Correct




comments powered by Disqus
↑ Back to top | Tablatures and chords are parodies/interpretations of the original songs. You may use it for private study, scholarship, research or language learning purposes only