>
 >
 >
Yaqeen

Yaqeen Guitar Tabs

Jal - Yaqeen chords, tabs, tablatures, lyrics

Guitar lessons | Add/correct | Request | Top 50 tabs Artists:  A B C D E F G H I J K L M N O P Q R S T U V W X Y Z 0-9

Yaqeen Guitar Tabs – Jal

CD, Sheet music, Poster

Do you like Yaqeen? Share with your friends now
Bass TabsChordsTabsUkulele
Song = Yaqeen
Artist = Atif Aslam


Chords

D [000232]
D~[000454] [This has to be played like this "[000455] and [000454]" ]
G~[022033]
G [320033]

e----2-----2---------0---0-----------------|
B------3-----3--------3---3----------------|
G--2-----0-----0---2---0---3---------------| x4 Guitar 1
D-0--------------0-------------------------|
A------------------------------------------|
E------------------------------------------|


e--------------------------------------|
B--------------------------------------|
G-12-11--7-9----12-11-12-14------------| Piano Part
D--------------------------------------|
A--------------------------------------|
E--------------------------------------|

D              G~
Ajj dIl dukha hai
G    G~   D
Tum yaad aye
D            G~
Anjane Log hain
G         G~    D
Apne Kahan Dhoun Payen


D
Jagey hain
D~
Soye Nahin
G~
Aasi hai meri
G     G~ D
Yea Bechain

D
Din Bhi Wahi
D~
Raat Bhi Wahi
G~
Sansoun mein Sansein
G  G~  d
hain nahin

[tHE WHOLE IN SAME pATTERN]


Solo

e--------------------------------------|
B--------------------------------------|
G-9-11--9-11-12-14---------------------|
D-0---------------12~-12-11-7-9-77-----|
A--------------------------------------|
E--------------------------------------|

e--------------------------------------|
B----10----8----7---7------------------|
G--7---7--7-7--7-7---7-----------------|
D-0-----0----0----0--------------------|
A--------------------------------------|
E--------------------------------------|


e--------------------------------------|
B----10----8----7---7---7--------------|
G--7---7--7-7--7-7---7----7------------|
D-0-----0----0----0----0---------------|
A--------------------------------------|
E--------------------------------------|

e--------------------------------------|
B-8-8---12-10-15-15--------------------|
G-7-7----------------------------------|
D-0-0----------------------------------|
A--------------------------------------|
E--------------------------------------|


Solo

e----------------------------------------------|
B-12~~-12p10----10----10-12-12~~-12-10-14-10---|
G------------11------------------------------9-|
D----------------------------------------------|
A----------------------------------------------|
E----------------------------------------------|

e-------------12-11--16~16/p14-18-14-9--|
B-12~~12p10-----------------------------|
G-----------11--------------------------|
D---------------------------------------|
A---------------------------------------|
E---------------------------------------|





Comments


Popular Jal tabs & chords
Dil Hare Bass Tabs
Lamhay Chords
Sajni 5 Chords
Mana Bikhra Hoon Main Tabs
Mera Khaba Tatta Tera Sajja Tattajal Tabs
Payal Teaser 1 Tabs
Sajni Intro Tabs
Ehsaas Ukulele
Humein Itna Pyar Na Karo Ukulele
Woh Lumhey Ukulele


Song lyrics



↑ Back to top | Tablatures and chords are parodies/interpretations of the original songs. You may use it for private study, scholarship, research or language learning purposes only
© 2014 AZChords.com Contact us | Privacy policy | DMCA | Add/correct tabs | Request tabs | Top 50 tabs