» » »

Jal, Teri Yaad Tabs (ver.5)

Artists:  A B C D E F G H I J K L M N O P Q R S T U V W X Y Z # 

Teri Yaad Tabs (ver.5)

Jal Tabs
 Rating:
4/5 (4 votes)
Teri Yaad  lessons Tabs too difficult? Try these video lessons and learn fast
1
                (Intro1)
this is the intro up to the part when he's jus bout 2 start singin


e|--7s12-12-12s8-8-8-10-8-7-7h8-7------------------10------|
B|--------------------------------10-8-7-------7-8---------|
G|---------------------------------------9---9-------------|
D|---------------------------------------------------------|
A|---------------------------------------------------------|
E|---------------------------------------------------------|

e|--7s12-12-12s8-8-88-10-8-7-7h8-7-------------------10----|
B|---------------------------------10-8-7--------7-8-------|
G|----------------------------------------9-9-99-----------|
D|---------------------------------------------------------|
A|---------------------------------------------------------|
E|---------------------------------------------------------|

e|--7h9-10-9-7---------|    this bit is
B|-------------10-8-7--|     played a bit faster
G|---------------------|
D|---------------------|
A|---------------------|
E|---------------------|



then 2 guitars r played together

guitar 1:
e|---------------------------|
B|---------------------------|
G|--------------------7------|   (not so sure bout this part)
D|------9-9-7-9-7-9-7---9-7--|
A|--7-7----------------------|
E|---------------------------|

guitar 2:
e|--7---------8--|
B|--7---------8--|
G|--x---------x--|  these 2 chords r played very lightly..
D|--x---------x--|    listen carefully to get the pattern
A|--7---------8--|
E|--x---------x--|


hope they're any good... i will b postin the whole song soon



- AyeN
            
Submit corrections

comments powered by Disqus
↑ Back to top | Jal Tabs for Teri Yaad. Lyrics for acoustic guitar and electric guitar. 1 Tablatures and chords are parodies/interpretations of the original songs. You may use it for private study, scholarship, research or language learning purposes only