>
 >
 >
Teri Yaad

Teri Yaad Guitar Tabs

Jal - Teri Yaad chords, tabs, tablatures, lyrics

Guitar lessons | Add/correct | Request | Top 50 tabs Artists:  A B C D E F G H I J K L M N O P Q R S T U V W X Y Z 0-9

Teri Yaad Guitar Tabs – Jal

CD, Sheet music, Poster

Do you like Teri Yaad? Share with your friends now
ChordsChords v2Chords v3TabsTabs v2Ukulele
Tuning: Standard(eBGDAE)


INTRO

e[--7s12-12-12-8-8-10-8-7-7h8-7--------------------10--]
B[------------------------------10-8-7---------7-8-----]
G[-------------------------------------9-9-999---------]
D[-----------------------------------------------------]
A[-----------------------------------------------------]
E[-----------------------------------------------------]

THEN AFTER A COUPLE OF TIMES AFTER PLAYIN TEH RIFF PLAY THIS:

e[-10-12-10-8-10-8-7-]
B[-------------------]
G[-------------------]
D[-------------------]
A[-------------------]
E[-------------------]

THEN NEXT PART HAS TWO GUITARS

e[------------------------------------]
B[------------------------------------]
G[-------------------7-------TWICE----]
D[---9-7h9-9-9-7-9-7--9-7-------------]
A[-7----------------------------------]
E[------------------------------------]

WHILE RHYTHM PLAYS

e[-x--------------------------]
B[-x--------------------------]
G[-x-------strum Accordingly--]
D[-9--------------------------]
A[-7--------------------------]
E[-x--------------------------]

THEN (I CHANGED IT UP, TO EMPHASIZE THE BASS)

e[------------------------------------]
B[------------------------------------]
G[-------------------7-------TWICE----]
D[---9-7h9-9-9-7-9-7--9-7-------------]
A[------------------------------------]
E[-8----------------------------------]

WHILE RHYTHM PLAYS

e[-x--------------------------]
B[-x--------------------------]
G[-x-------strum Accordingly--]
D[-5--------------------------]
A[-3--------------------------]
E[-x--------------------------]

VERSE

TERI YAAD...... AAYAY JAB MUJHKO
                 V V ^ V ^ V ^ V ^
e[-x---x-x-------x-x-x-x-x-x-x-x-x------]
B[-x---x-x-------x-x-x-x-x-x-x-x-x------]
G[-x---x-x---X4--x-x-x-x-x-x-x-x-x--X2--]
D[-7h9-9-9-------5-5-5-5-5-5-5-5-5------]
A[-7---7-7-------3-3-3-3-3-3-3-3-3------]
E[-x---x-x-------x-x-x-x-x-x-x-x-x------]

REPEAT

THEN 

   FASALAY......      SAKAY.......
e[-x------------------x---x--x------]
B[-x-same strummin ---x---x--x------]
G[-x-pattern as-------x---x--x--X4--]
D[-5-verse X2---------7h9-9--9------]
A[-3------------------7---7--7------]
E[-x------------------x---x--x------]

REPEAT

  IN FAASALOON ko.... simatna hai
e[---------------------------------------5h7-15p14-14p12-12p10-10p8-]
B[-------------5----------7-----------7h8---------------------------]
G[-----------5--5-------7---7------7h9------------------------------]
D[---------5------5---7------7--7h9---------------------------------]
A[-------3----------5-----------------------------------------------]
E[------------------------------------------------------------------]

REPEAT

THE SONG THEN CARRIES ON IN THE SAME WAY

SOLO

e[------------------10-8-7-------------------------------]
B[-------7-7h8-7-7h8------8-7--------5-5h7-5-7h8-7-------]
G[-----9---------------------------5--------------9-7h9--]
D[---9---------------------------5-----------------------]
A[-7---------------------------3-------------------------]
E[-------------------------------------------------------]

e[---------------10-15-14-12-10-8-7h8p7-7h8p7------------]
B[-------7-7h8-7------------------------------10-8-7-----]
G[-----9-------------------------------------------------]
D[---9---------------------------------------------------]
A[-7-----------------------------------------------------]
E[-------------------------------------------------------]

e[-x--x-x--x-x--x---x-----x--x-x--x-x--x---x--------]
B[-x--x-x--x-x--x---x-----x--x-x--x-x--x---x--------]
G[-x--x-x--x-x--x---x-----x--x-x--x-x--x---x--------]
D[-x--x-x--x-x--x---x-----x--x-x--x-x--x---x--------]
A[-7--7-7--9-10-10--12----7--7-7--9-10-10--12-------]
E[-x--x-x--x-x--x---x-----x--x-x--x-x--x---x--------]

e[-x--x--x---x-x-x-x--x--------]
B[-x--x--x---x-x-x-x--x--------]
G[-x--x--x---x-x-x-x--x---X2---]
D[-10-10-10--9-9-9-9--7--------]
A[-x--x--x---x-x-x-x--x--------]
E[-x--x--x---x-x-x-x--x--------]

e[-x--x-x--x-x--x---x-----x--x-x--x-x--x---x--------]
B[-x--x-x--x-x--x---x-----x--x-x--x-x--x---x--------]
G[-x--x-x--x-x--x---x-----x--x-x--x-x--x---x--------]
D[-x--x-x--x-x--x---x-----x--x-x--x-x--x---x--------]
A[-7--7-7--9-10-10--12----7--7-7--9-10-10--12-------]
E[-x--x-x--x-x--x---x-----x--x-x--x-x--x---x--------]

e[-x--x--x--x-x-x-x-x-x-x-x-x-x-x--]
B[-x--x--x--x-x-x-x-x-x-x-x-x-x-x--]
G[-x--x--x--x-x-x-x-x-x-x-x-x-x-x--]
D[-10-10-10-9-9-9-7-7-7-5-5-5-5-5--]
A[-x--x--x--x-x-x-x-x-x-x-x-x-x-x--]
E[-x--x--x--x-x-x-x-x-x-x-x-x-x-x--]


THEN JUST REPEAT THE PARTS ACCORDING TO THE ARRANGEMENT OF THE SONGS





Comments


Popular Jal tabs & chords
Ehsaas Chords
Teri Yaad 1 Chords
Aadat 2 Tabs
Aik Din Ayay Ga Tabs
Dil Hare 1 Tabs
Payal Teaser Tabs
Teri Yaad (Intro Ver 2) Tabs
Kuch Iss Tarha Ukulele
Teri Yaad Ukulele
Yaqeen Ukulele


Song lyrics



↑ Back to top | Tablatures and chords are parodies/interpretations of the original songs. You may use it for private study, scholarship, research or language learning purposes only
© 2014 AZChords.com Contact us | Privacy policy | DMCA | Add/correct tabs | Request tabs | Top 50 tabs