» » »

Jal, Sajni Tabs (ver.2)

Artists:  A B C D E F G H I J K L M N O P Q R S T U V W X Y Z # 

Sajni Tabs (ver.2)

Jal Tabs
 Rating:
3.6/5 (7 votes)
Sajni lessons Tabs too difficult? Try these video lessons and learn fast
                --------------------------------------------------------------------------
                            Sajni (Unplugged) - Jal
--------------------------------------------------------------------------


Tuning: Standard


Jal's Sajni from thier upcoming album "Boondh". I know the orignal
song is yet to be released. Heard the live version once. I think the
tune of the song is beautiful. This is what i remember so i wanted 
to share it with the ones who dont know how to play it.
 
Inshallah i would be the first one to tab the whole song =) just
waiting for them too release it. By the way some notes might be 
missing (dont have the song) just heard it once so sorry 
for that. 

(x2) Play it twice

e|-------------11-11----12-11-9----9-9-------11-9-7---|
B|-9-9-11-12-9-------------------------12-12----------|
G|----------------------------------------------------|
D|----------------------------------------------------|
A|----------------------------------------------------|
E|----------------------------------------------------|


(x2) Play it twice


e|---7-7-7-6h7-9-7-6-4-4-2---9-9-9-7\12-11-11-9-9-7-|
B|-5-----------------------7------------------------|
G|--------------------------------------------------|
D|--------------------------------------------------|
A|--------------------------------------------------|
E|--------------------------------------------------|

| /  slide up
| h  hammer-on
===========================================================================
            
Submit corrections

comments powered by Disqus
↑ Back to top | Jal Tabs for Sajni. Lyrics for acoustic guitar and electric guitar. Tablatures and chords are parodies/interpretations of the original songs. You may use it for private study, scholarship, research or language learning purposes only