>
 >
 >
Rangon Mein

Rangon Mein Guitar Tabs

Jal - Rangon Mein chords, tabs, tablatures, lyrics

Guitar lessons | Add/correct | Request | Top 50 tabs Artists:  A B C D E F G H I J K L M N O P Q R S T U V W X Y Z 0-9

Rangon Mein Guitar Tabs – Jal

CD, Sheet music, Poster

Do you like Rangon Mein? Share with your friends now
Bass TabsTabsTabs v2
HELLO this is fawad! this is my first tab and i hope its almost right!
 This song is mixed at some places i will give chords and at some tabs!
 ALL OF THE SONG IS BASED ON POWER CHORDS!! 

    DROP D tuning(two frets low at E(low))
     
     B5(999XXX) G5(555XXX) C#5(11,11,11,X,X,X)D5(12,12,12,X,X,X)
     E5(high)(14,14,14,X,X,X) E5(low)(222xxx) F#5(444XXX) G5(555XXX)


  Kay rahain in rangon main  
                B5        B5 B5   
  kay rahain in khawabon main
                G5        G5 G5 
  KAy rahain in rangon main  
                B5        B5 B5
  G5 G5 G5
   strum the last G5 some hard!

  AFTER that this riff starts 
riff 1
fig(i)  
|----x--x----x---x---x-----|
|----x--x----x---x---x-----|
|----x--x----x---x---x-----|
|----9--9----11---11--11---|
|----9--9----9----9---9----|
|----9--9----9----9---9----|

fig(ii)
|----x--x----x---x---x--|
|----x--x----x---x---x--|
|----x--x----x---x---x--|
|----5--5----5---5---5--|
|----5--5----5---5---5--|
|----5--5----7---7---7--|

strumming and muting sequence can be learned by listening and practice!

Chorus:
RANGON MAIN , KHAWABON MAIN 
   fig.(i)x2
HUM SABHEE!
 fig(ii)x2
NAINAN MAIN , AKHIYAN MAIN 
   fig.(i)x2
Tum jo kabhee!
 fig.(ii)x2

riff 2
  B5  C#5  D5  E5(high) 
REPEAT THE CHORUS 

Then riff 2 again without E5(high)! 
VERSE 1:
ZINDAGEE ZARA TUU JHOOM LAY 
   B5                    G5
APNAY GIRD ZARA TU GHOOM LAY
   B5                     G5
BRIDGE:
BAANT LAY SAAREE KHUSHIAAN 
E5(low)        F#5    G5
BHULA DAY SARAY GHAM
E5(low)        F#5   G5

REPEAT CHORUS 
 THEN WHEN THIS "HO HOOOO " part comes play  B5 And then G5!listen the song and u will get to know !

WHEN THE HUMMING STARTS PLAY 
riff 3 
|-------------------------------------|
|-------------------------------------|
|-------------------------------------|
|-------------------------------------|
|----0--------------------------------|
|------5--3--2-2-2-----0--5--3--2-2--2|
I M NOT TOO SURE ABOUT THIS BUT THIS WILL JUST MATCH!

SAME CHORDS FOR VERSE 2 also !
APNAY HAATH ZARA TUU UTHA LAY 
MAANG LAY RUB SAY DUA 
 
THEN REPEAT THE BRIDGE AND CHORUS!

Riff 4 x2
|-------------------------------------------|
|-------------------------------------------|
|-------------------------------------------|
|-------------------------------------------|
|--------------------------------3-3-5-5-7-7|
|---0-0-2-2-3-3--5-5--7-5-3-2-0--3-3-5-5-7-7|


Kay rahain in rangon main  
B5            
kay rahain in khawabon main
G5                
KAy rahain in rangon main  
B5     
KAy rahain in khawabon main
G5

THEN IN THE END THE LAST "HO HOOOO" or alaap part u will play riff 2 again !!
IT IS a very simple song !!Intro will be soon given!!!





Comments


Popular Jal tabs & chords
Alvida Chords
Dil Hare Chords
Panchi Chords
Addat 1 Tabs
Addat 2 Tabs
Mahia Intro Tabs
Moray Piya Intro Tabs
Teri Yaad Tabs
Humein Itna Pyar Na Karo Ukulele
Kuch Iss Tarha Ukulele


Song lyrics



↑ Back to top | Tablatures and chords are parodies/interpretations of the original songs. You may use it for private study, scholarship, research or language learning purposes only
© 2014 AZChords.com Contact us | Privacy policy | DMCA | Add/correct tabs | Request tabs | Top 50 tabs