» » »

Jal, Panchi Tabs (ver.2)

Artists:  A B C D E F G H I J K L M N O P Q R S T U V W X Y Z # 

Panchi Tabs (ver.2)

Jal Tabs
Rating:
4/5 (4 votes)
Panchi lessons Tabs too difficult? Try these video lessons and learn fast
                Panchi....

Intro:

e--5-5-7-8-8-5-5-5s12-10-8-7-3-3-1-3-3-3-0-    (x2)

Panchi hoon.............hawaon say larney do...
              (C)
e----------------------------|
B----0-------------0---0-----|
G------5---5----5---5--------|
D--------5----5--------------|
A--3-------------------------|
E----------------------------|


e--5-5-7-8-8-5-5-5s12-10-8-7-3-3-1-3-3-3-0-    (x2)


Rastey galiyaan..........wadey tor chala
              (E)
e-----------------------------|
B-----------------------------|
G--------9-----9-----9--------|
D----7-------7----7-----------|
A--0-------0------------------|
E-----------------------------|

yeh raat abhi............ yeh baat abhi badal jayegee
             (Dm)                   (Am)
e-------------------------------------------------------|
B-------6---------6---6-----------1--------1---1--------|
G----7----7---------7---7------2---2--------2---2-------|
D-7---------7-----------------2-------2-----------------|
A---------------5-------------------------0-------------|
E-------------------------------------------------------|

Tanha hoon..........behney doo
             (C)
e--------------------------|
B----0---------------------|
G---------5----5-----------|
D---- -5----5--------------|
A--------------------------|
E--------------------------|

With distotion..
 C  Am  C  F    (x3)
 C  Am  C ....

Solo...
e-------------------------------------------------------|
B-------------------------------------------------------|
G--7/9-9-9-9--7/9-9-7/9-9-7/9-9-7-5-4-5-4-7-5-----------|
D-------------------------------------------------------|
A-------------------------------------------------------|
E-------------------------------------------------------|

e--------------------------------------------------------|
B--------------------------------------------------------|
G--7/9-9-9-9--7/9-9-7/9-9-7/9-9-7-5-4-5-4-7-2------------|
D--------------------------------------------------------|
A--------------------------------------------------------|
E--------------------------------------------------------|

e------------------------|
B------------------------|
G--7-5-4-2-4-5-----------|       (x4)
D------------------------|
A------------------------|
E------------------------|

e---------------------------------------------------------------------------|
B--10-10-10-10-10-12-10-10-12-12-12-12-13-12-17-17-17-17-18-17-15-13-12-10--|
G---------------------------------------------------------------------------|
D---------------------------------------------------------------------------|
A---------------------------------------------------------------------------|
E---------------------------------------------------------------------------|

e----------------------------------------------------------------------------|
B-10-10-10-10-10-12-10-10-12-12-12-12-13-12-17-17-17-17-18-17-17-17s20-20-20-|
G----------------------------------------------------------------------------|
D----------------------------------------------------------------------------|
A----------------------------------------------------------------------------|
E----------------------------------------------------------------------------|

(~ mean sustain)
hmmmmmmmm........hmmmmmmmmmm.............hmm hmmm        x2
  C~     F~                             F      F


With ditortion...................
C     Am     C      F

First listen song carefully and then try to play with a song.. ..its so easy..

Any suggestion/correction...
            

comments powered by Disqus
↑ Back to top | Jal Tabs for Panchi. Lyrics for acoustic guitar and electric guitar. Tablatures and chords are parodies/interpretations of the original songs. You may use it for private study, scholarship, research or language learning purposes only