>
 >
 >
Dil Hare

Dil Hare Guitar Tabs

Jal - Dil Hare chords, tabs, tablatures, lyrics

Guitar lessons | Add/correct | Request | Top 50 tabs Artists:  A B C D E F G H I J K L M N O P Q R S T U V W X Y Z 0-9

Dil Hare Guitar Tabs – Jal

CD, Sheet music, Poster

Do you like Dil Hare? Share with your friends now
Bass TabsChordsChords v2TabsTabs v2Ukulele
" INTRO "

e|-------3---2-----5\3----------3p2---2------7-----------------------|
b|-----3-------3-------3------3-----3---3----7-------------|Guitar 1-|
g|---0-----0-----0----------0-------------0--0-----------------------|
d|-------------------------------------------0-----------------------|
a|-------------------------------------------------------------------|
e|-3---------------------3-------------------------------------------|

e|-------------------------15--15------------------------|Guitar 2
b|-----------------------15--15--------------------------|

e|-----3---2-----5\3-------3\2---2-----3-3---------------------------|
b|-----------3-------3---------3---3-----------------------|Guitar 1-|
g|---0---0-----0---------0-----------0-------------------------------|
d|-------------------------------------------------------------------|
a|-3-------------------3---------------------------------------------|
e|-------------------------------------------------------------------|

e|--15--15---------------15--15-------17-17--------------|Guitar 2-|
b|15--15---------------15--15--------------------------------------|

e|-------3\2---2-----5\3----------3\2---2-------7------------------|
b|-----3-----3---3-------3------3-----3---3-----7--------|Guitar 1-|
g|---0-------------0----------0-------------0---0------------------|
d|----------------------------------------------0------------------|
a|-----------------------------------------------------------------|
e|-3------------------------3--------------------------------------|

e|------7--------7h8-7p5----------7---------7------------|Guiatr 2
b|-------------------------------------------------------|

e|-------3\2---2-----5\3----------3\2---2-----3/7--------------------|
b|-----------3---3-------3------------3---3----------------|Guiatr 1-|
g|---0-------------0----------0-------------0------------------------|
d|-------------------------------------------------------------------|
a|-3------------------------3----------------------------------------|
e|-------------------------------------------------------------------|

e|--------7-------7h8-7p5----------7-10--7---------------|Guitar 2
b|-------------------------------------10----------------|

e|-----7---5-----5h7-7-----7/8---5-5-7/8---5----------------------|
b|---7---7---7-----------7-----7---------7---7\3------------------|
g|----------------------------------------------------------------|
d|----------------------------------------------------------------|
a|-7-----------7-------7------------------------------------------|
e|----------------------------------------------------------------|


e|-----0---2---3-2------------3\2---2-----3------3--------------|
b|---3---3---3-----3---3----------3---3------3---3--------------|
g|--------------------------0-----------0--------0--------------|
d|-----------------------------------------------0--------------|
a|-3-----------------3----3----------------------2--------------|
e|-----------------------------------------------3--------------|


"CHORDS"

Intro Play G C D Chords then

Play G couple of times with muted G chord


G C
Ankhoon say jub bhi ho teri aankhein juda

G C D
mun say jub bhi ho tera man khafa

Bm D C
tau ji pukare, pukare tujhe

Bm C G
man ghabraye a a a bulaye tujhe

Chorus:

G D C
k dil harey pukare tujheeey

G C D
mun ja re manale mujhey

G D C
sunta re lagale galay

G Bm D G
koh ja re tu gaa lay sub re


G C
tere bina zindagi laagey saza

G C D
tera saath ho yeh saza laagay jaza

Bm D C
tau barte jaye tau rastey saare

Bm C G
duniya peechay tau hum hai aagay

G D C
k dil harey pukare tujheeey

G C D
mun ja re manale mujhey

G D C
sunta re lagale galay

G Bm D G
koh ja re tu gaa lay sub re

                                                             "NOW COMES THE SOLO"

e|-------------------------------------------------------|
b|-------------------------------------------------------|
g|-7-7-5-4---4-7-7-5-4-5p4-4-4-4-5p4-4-4-4-5-4-5-4-4----4|
d|---------7-----------------------------------------7-7-|
a|-------------------------------------------------------|
e|-------------------------------------------------------|


e|-------------------------------------------5/7-8-7-5-7-|
b|---------------------------------------8-7-------------|
g|---------4-----4-----7-5-4------4----------------------|
d|-7-5-5h7---7-7---7-5-------7-7-----7-5-----------------|
a|-------------------------------------------------------|
e|-------------------------------------------------------|


e|-8-8/7-7-7-7\5-5-5-5\3-3-3-10-10-10\8-8-8\7-7-7\5-5-5--|
b|-------------------------------------------------------|
g|-------------------------------------------------------|
d|-------------------------------------------------------|
a|-------------------------------------------------------|
e|-------------------------------------------------------|


e|-8-7-5-------------------------------------5-7-8-7-----|
b|-------7-5h7-5-5\3-3\1-3---------------5-7---------8-7-|
g|---------------------------5-4-5p4-5-4-----------------|
d|-------------------------------------------------------|
a|-------------------------------------------------------|
e|-------------------------------------------------------|


e|----------------------------------------------12-10-8-7|
b|-5-----------------------------------------------------|
g|----5-4-4h5p4-------------------------5-----7----------|
d|--------------5-7-5--------------5--7---7-5------------|
a|--------------------7-5--7-5-5h7-----------------------|
e|-------------------------------------------------------|


e|-5-3---------------------------------------------------|
b|-------------------------------------------------------|
g|-------------------------------------------------------|
d|-------------------------------------------------------|
a|-------------------------------------------------------|
e|-------------------------------------------------------|





Comments


Popular Jal tabs & chords
Woh Lamhey Bass Tabs
Ik Aarzu Chords
Kabhi Kabhi Chords
Aik Din Ayay Ga Tabs
Har Jaga Hai Jal Tabs
Mahia Intro Tabs
Morey Piya Intro Tabs
Panchi 2 Tabs
Woh Lamhey Tabs
Woh Lumhey Ukulele


Song lyrics



↑ Back to top | Tablatures and chords are parodies/interpretations of the original songs. You may use it for private study, scholarship, research or language learning purposes only
© 2014 AZChords.com Contact us | Privacy policy | DMCA | Add/correct tabs | Request tabs | Top 50 tabs