» » »

Jaguares, Fin Chords (ver.2)

Artists:  A B C D E F G H I J K L M N O P Q R S T U V W X Y Z # 

Fin Chords (ver.2)

Jaguares Tabs
 Rating:
4/5 (4 votes)
Fin lessons Tabs too difficult? Try these video lessons and learn fast
1
                -=Intro=-

-=G1=-
e|--------10------10--------10--|------10--|]
B|----8-------8-------7---7-----|--7-------|]
G|--7---7-------7-------7-------|----7-----|]
D|------------------------------|----------|]
A|------------------------------|----------|]
E|------------------------------|----------|]

-=G2=-                             h   p
e|------------------------------|----------|]
B|------------------------------|-7h8-7----|]
G|------------------------------|-------7--|]
D|------------------------------|----------|]
A|------------------------------|----------|]
E|------------------------------|----------|]

-=Para una guitarra=-
                                 B   p
e|--------10------10--------10----------|]
B|----8-------8-------7---7------7h8-7--|]
G|--7---7-------7-------7---------------|] 
D|--------------------------------------|]
A|--------------------------------------|]
E|--------------------------------------|]

C                        Bm
Si yo me fuera antes de amarte
Am          F                  G
me suicido cayendo al mundo con mis alas
C                              Bm
y aquí en la tierra te doy mi esencia
Am                  F
te doy mis cielos todos mis sueños
G
con tal de ver el calor
Am
de tu calma
Amaj7
de tus manos
Am7
de tu risa
G@
de tu alma

C   D
Fin,
Em           Bm
todo tiene un fin
        C            D
menos el fuego de tus ojos
     C      D
que se pierden
    Em            Bm
profundo en el misterio
           C
de las historias
         D
que no cuenta
      Em               Bm
el celestial calor del sol

C                                 Bm
Y después de un tiempo te vuelvo eterna
   Am                 F
te saco del mundo, te purifico
   G
y nos perdemos volando
        G@
en lo eterno

Am, Bm, C, D

        Am
Dame tu vida
          Amaj7
te doy mi esencia
               Am7
nuestra última entrega
                  G@
de un gran principio

C   D
Fin,
Em           Bm
todo tiene un fin
        C            D
menos el fuego de tus ojos
     C      D
que se pierden
    Em            Bm
profundo en el misterio
           C
de las historias
         D
que no cuenta
      Em               Bm
el celestial calor del sol

C   D
Fin,
Em           Bm
todo tiene un fin
        C            D
menos el fuego de tus ojos
     C      D
que se pierden
    Em            Bm
profundo en el misterio
           C
de las historias
         D
que no cuenta
      Em               Bm
el celestial calor del sol


-=Notas=-
    C    D    Em   F    G    G@   Am Amaj7 Am7  Bm   
e|--0----2----0----1----3----0----5----0----0----2--|]
B|--1----3----0----1----3----0----5----0----1----3--|]
G|--0----2----0----2----4----4----5----1----0----4--|]
D|--2----0----2----3----5----5----7----2----2----4--|]
A|--3----0----2----3----5----5----7----0----0----2--|]
E|--3----X----0----1----3----3----5----0----0----2--|]
            
Submit corrections

comments powered by Disqus
↑ Back to top | Jaguares Chords for Fin. Lyrics for acoustic guitar and electric guitar. 1 Tablatures and chords are parodies/interpretations of the original songs. You may use it for private study, scholarship, research or language learning purposes only