» » »

Fin Tabs (ver.1)

Artists:  A B C D E F G H I J K L M N O P Q R S T U V W X Y Z # 

Fin Tabs (ver.1)

Jaguares
Rating:
0/5 (0 votes)

Tabs too difficult? Try these video lessons and learn fast.
                Jaguares - fin
Intro                                      x4 
e|-------10-----------------------------------|
B|---8-------8-------7---------7h8h7h7--------|
G|-7---7-------7-------7----------------------|
D|--------------------------------------------|
A|--------------------------------------------|
E|--------------------------------------------|
                                       
C          
Si yo me fuera 

            Bm
antes de amarte

Am          F                  G        
me suicido cayendo al mundo con mis alas 

C                        
y aquí en la tierra 

               Bm
te doy mi esencia

Am                  F      
te doy mis cielos todos mis sueños

G
con tal de ver el calor

Am
de tu calma                                       
                                      AmMaj7
AmMaj7                       |----5---------|        
de tus manos                 |----5---------|
                             |----5---------|
Am                           |-----6--------|
de tu risa                   |------7-------|
                             |----5---------|
G
de tu alma



C   

D              Em
todo tiene un fin

        C            D
menos el fuego de tus ojos

     C     
que se pierden

    D                Em
profundo en el misterio

           C
de las historias

         D
que no cuenta

      Em                F#m G
el celestial calor del sol

                                           x4
e|-------10-----------------------------------|
B|---8-------8-------7---------7h8h7h7--------|
G|-7---7-------7-------7----------------------|
D|--------------------------------------------|
A|--------------------------------------------|
E|--------------------------------------------|

                                Bm
Y después de un tiempo te vuelvo eterna

   Am                 F      
te saco del mundo, te purifico

   G
y nos perdemos volando

        Em
en lo eterno


puente

Am, Bm, C, D


        Am
Dame tu vida
          AmMaj7
te doy mi esencia
               Am
nuestra última entrega
                  G
de un gran principio


C   

D             Em
todo tiene un fin

        C            D
menos el fuego de tus ojos

     C     
que se pierden

    D                Em
profundo en el misterio

           C
de las historias

         D
que no cuenta

      Em               F#m
el celestial calor del sol


C   

D          Em
todo tiene un fin


                C            D
menos el fuego de tus ojos

     C     
que se pierden

    D            Em
profundo en el misterio

           C
de las historias

         D
que no cuenta

      Em               F#m 
el celestial calor del sol
                                           x8
e|-------10-----------------------------------|
B|---8-------8-------7---------7h8h7h7--------|
G|-7---7-------7-------7----------------------|
D|--------------------------------------------|
A|--------------------------------------------|
E|--------------------------------------------|
            
Tabs too difficult? Try these video lessons and learn fast.




comments powered by Disqus
↑ Back to top | Tablatures and chords are parodies/interpretations of the original songs. You may use it for private study, scholarship, research or language learning purposes only