>
 >
Portrait Of Tracy 1

Portrait Of Tracy 1 Bass Tabs

Jaco Pastorius - Portrait Of Tracy 1 chords, tabs, tablatures, lyrics

Guitar lessons | Add/correct | Request | Top 50 tabs Artists:  A B C D E F G H I J K L M N O P Q R S T U V W X Y Z 0-9

Portrait Of Tracy 1 Bass Tabs – Jaco Pastorius

CD, Sheet music, Poster

Do you like Portrait Of Tracy 1? Share with your friends now
Bass TabsBass Tabs v2Bass Tabs v3
Portrait of Tracy 
Jaco Pastorius 


  G|-<5>-<3.3>-----------------------------------|----------|----------------| 
6 D|----------<4>-----<5>-<3.3>------------------|----------|----------------| 
8 A|-------------<3.3>---------<4>-----<5>-<3.3>-|----------|------------0-2-| 
  E|------------------------------<3.3>----------|<4>--<7>--|-<12>-----------| 

  G|----<4>-------<5>----------------|-----------<4>--<4>-------|------------| 
6 D|----<4>--<3.3>---<4>---------<5>-|-----------<4>--<5>-------|------------| 
8 A|-3---------------<5>--<3.3>------|-2&<6>-----------3--------|--------0-2-| 
  E|------------------3--------------|--------0------------<5>--|----3-0-----| 
          
  G|----<4>-------<5>----------------|-----------<4>-<12>-------|------------| 
6 D|----<4>--<3.3>---<4>---------<5>-|-----------<4>--<9>-------|------------| 
8 A|-3---------------<5>--<3.3>------|-2&<6>----------<9>-------|------------| 
  E|------------------3--------------|--------0-------------11--|------------| 
                  
  G|-------------<4>--<4>-------|--------------|-------------<4>--<12>-------| 
6 D|-------------<4>--<5>-------|--------------|-------------<4>---<9>-------| 
8 A|-2&<6>-------------3--------|--------------|-2&<6>-------------<9>-------| 
  E|---------0-------------<5>--|--------------|---------0---------------11--| 

  G|-<4>-------------<2.5>--|---<2.3>-------------|---------<7>--------------| 
6 D|-<4>-------------<2.5>--|---<2.3>-------------|-<7>-----<5>-----<7>------| 
8 A|-<4>-------------<2.5>--|---<2.3>-------------|-<5>-------------<5>------| 
  E|--------4---4-----------|------------3---3----|----------------------2---| 

  G|-<4>--------------|   |-<7>--------------------|-<4>---------------------|
6 D|------------------| 4 |-<4>--------------------|-------<4>---------------|
8 A|------------------| 4 |-<4>--------------------|-------------------<5>---|
  E|--------1------0--|   |--------<4>----<7>------|-------------<5>---------|

  G|-<7>------------------|-<4>---------------------<7>---|------------------| 
4 D|-<4>------------------|-------<4>---------------<4>---|------------------| 
4 A|-------<4>------------|-------------------<5>---------|-<4>--------------| 
  E|----------------<7>---|-------------<5>---------------|---------<7>------| 
       
  G|-<4>-------------------|-<7>---------------|-<4>-------------------<7>---|
4 D|------<4>--------------|-<4>---------------|------<4>--------------<4>---| 
4 A|-----------------<5>---|-------<4>---------|-----------------<5>---------| 
  E|-----------<5>---------|-------------<7>---|-----------<5>---------------| 
  
  G|-------------|   |----<7>----------|----<7>-------------|----<7>---------|
4 D|-------------| 5 |----<7>-----<7>--|----<7>-----<7>-----|----<7>----<7>--|
4 A|-<4>---<7>---| 8 |-----------------|--------------------|----------------|
  E|-------------|   |-8-------8-------|-8------8--------8--|-7------7-------|
 
  G|----<7>------------|----<7>---------|----<7>------------|----<7>---------|
5 D|----<7>-----<7>----|----<7>----<7>--|----<7>----<7>-----|----<7>----<7>--|
8 A|-------------------|----------------|-------------------|----------------|
  E|-7-------7------7--|-6------6-------|-6------6-------6--|-7------7-------|

  G|----<7>------------|----<5>---------|----<7>------------|----<7>---------|
5 D|----<7>-----<7>----|----<7>----<5>--|-----------<7>-----|----<9>----<7>--|
8 A|-------------------|-----------<7>--|-------------------|-----------<9>--|
  E|-7-------7------7--|-8------8-------|-8------8-------8--|-7------7-------|

  G|-----<7>-----------------|-----<7>-------------|-----<7>-----------------| 
5 D|---------------<7>-------|-----<7>-------<7>---|-----<7>-------<7>-------| 
8 A|-------------------------|---------------------|-------------------------| 
  E|-7---------7---------7---|-6---------6---------|-6---------6---------6---| 

  G|--------------<5>-----|------<4>---------|   |-----<3.3>-------<2.5>-----|
6 D|------<5>-----<7>-----|-<4>--------------| 5 |-----< 5 >-------< 4 >-----|
8 A|-6--------------------|------------------| 8 |---------------------------|
  E|----------------------|------------0--3--|   |-4-----------4-------------|
           
  G|-----<3.3>-------<2.5>------|------<4>-----------|-----------<3.5>-------|
5 D|-----< 5 >-------< 4 >------|------<5>----<4>----|-<3.5>-----<3.5>-------|
8 A|----------------------------|-------------<5>----|-<3.5>-----------------|
  E|-4-----------4-----------4--|-3------------------|--------------------3--|

  G|-----<3.3>-------<2.5>------|-----<3.3>-----<2.5>-----|----<4>-----------|
5 D|-----< 5 >-------< 4 >------|-----< 5 >-----< 4 >-----|----<5>----<4>----|
8 A|----------------------------|-------------------------|-----------<5>----|
  E|-4-----------4--------------|-4----------4---------4--|-3----------------|
           
  G|-----------<3.5>-------|----<3.3>-----<2.5>-----|----<3.3>-----<2.5>-----|
5 D|-<3.5>-----<3.5>-------|----< 5 >-----< 4 >-----|----< 5 >-----< 4 >-----|
8 A|-<3.5>-----------------|------------------------|------------------------|
  E|--------------------3--|-4---------4------------|-4---------4---------4--|

  G|-----<4>------------|-----------<3.5>-------|-----<3.3>-------<2.5>------|
5 D|-----<5>-----<4>----|-<3.5>-----<3.5>-------|-----< 5 >-------< 4 >------|
8 A|-------------<5>----|-<3.5>-----------------|----------------------------|
  E|-3------------------|--------------------3--|-4-----------4--------------|
           
  G|-----<3.3>-------<6>------|   |-----<4>--------------|-------------------|
5 D|-----< 5 >-------<4>------| 6 |-----<5>----<5>-------|-<3.3>-------------|
8 A|--------------------------| 8 |-3----------<4>----0--|---1------<1.3>----|
  E|-4-----------4---------4--|   |-------------3--------|------------1------|

  G|--------------|---------------|-----<4>---------<5>----------------------|
6 D|--------------|---------------|-----<4>--<3.3>--------<4>----------<5>---|
8 A|--------------|-----------0-2-|-3---------------------<5>---<3.3>--------|
  E|--------------|---------------|------------------------3-----------------|
     
  G|-----------<4>--<4>-------|------------|----<4>-------<5>----------------|
6 D|-----------<4>--<5>-------|------------|----<4>--<3.3>---<4>---------<5>-|
8 A|-2&<6>-----------3--------|--------0-2-|-3---------------<5>--<3.3>------|
  E|--------0------------<5>--|----3-0-----|------------------3--------------|

  G|-----------<4>--<12>------|------------|------------|--------9&<13>------|
6 D|-----------<4>---<9>------|------------|------------|--------9&<13>------|
8 A|-2&<6>-----------<9>------|------------|------------|--------9&<13>------|
  E|--------0-----------------|-11---------|------------|-0---0--------------|





Comments


Popular Jaco Pastorius tabs & chords
6/4 Jam Bass Tabs
Amerika 1 Bass Tabs
Blackbird Bass Tabs
Blackbird 1 Bass Tabs
Blackbird 2 Bass Tabs
Chicken 1 Bass Tabs
Chromatic Fantasy 1 Bass Tabs
Come On, Come Over Bass Tabs
Continuum Head Bass Tabs
Three Views Of A Secret Ukulele


Song lyrics



↑ Back to top | Tablatures and chords are parodies/interpretations of the original songs. You may use it for private study, scholarship, research or language learning purposes only
© 2014 AZChords.com Contact us | Privacy policy | DMCA | Add/correct tabs | Request tabs | Top 50 tabs