>
 >
Mercy Mercy Mercy

Mercy Mercy Mercy Bass Tabs

Jaco Pastorius - Mercy Mercy Mercy chords, tabs, tablatures, lyrics

Guitar lessons | Add/correct | Request | Top 50 tabs Artists:  A B C D E F G H I J K L M N O P Q R S T U V W X Y Z 0-9

Mercy Mercy Mercy Bass Tabs – Jaco Pastorius

CD, Sheet music, Poster

Do you like Mercy Mercy Mercy? Share with your friends now
Bass Tabs
Mercy, Mercy, Mercy- Jaco Pastorius

Intro 0:00-0:02sec
G: -----------|
D: -----------|
A: -------0---|
E: --0-1----6-|

Main riff (with small changes) 0:02-0:35sec
G: --------------------------------------------------|
D: ----------------------------------------(6 times)-|
A: -------xx-5-5--xx--6-6-77-8-----------------------|
E: --6--------------------------x-1------------------|

0:35-0:52sec
G: ---------------------------------------------------------|
D: -------------------5-6------------------------8----5-----|
A: ------------------------------------------------5-----8--|
E: --6-6-66-6/---3-------4-5-6---6-6-66-6--33---------------|

G: ----------------------------------------------------|
D: ----------------------------------------------------|
A: -------5-5--6-6-8-----------5-5--6-6-8-(hold note)--|
E: --6-6--------------1/6--6-6-------------------------|

0:52-1:02sec
G: ---------------------------------------------------------|
D: ------------------------------------------3-5--3-5--3-5--|
A: --------8-10---10----1-35----5----3-5-------------------|
E: --8-10---------------------------------------------------|

1:02-1:18sec
G: -----------------------------------------------------|
D: -------------------------------------------(2 times)-|
A: ----------xx-5-5--xx--6-6-77-8-----------------------|
E: --6-6-------------------------------x-1--------------|

G: ---------------------------------------|
D: ----8----------------------------------|
A: ----------5-6-8--5---6--5--66-7-8------|
E: --6---6-------------6-------------x-1--|

1:18-1:23sec
G: --------------------------------------------|
D: --------------------------------------------|
A: ----------xx-5-5--xx--6-6-7-7-8-------------|
E: --6-6-------------------------------x-1-----|

1:23-1:51sec
G: -----------------------------------------------------------|
D: -----------------------------------------------------------|
A: ------------------------------------------5-6-6-6-6-6-6-6--|
E: --6-6--6-6-6-6--6-6--7-8-8--8-8-8-8--8-8-------------------|

G: -------------------------------------------------------------|
D: --------------------------------------6------------------8---|
A: -6-6-6-6-6--7-7--7--88-8-99-9-1010-10-------10-9-8-8--10-----|
E: ----------------------------------------8-8------------------|

G: ---------------------------------------|
D: -----8------8------8------8-------8----|
A: --6------6-----6------6-----8--10------|
E: ---------------------------------------|

1:51-1:55sec
G: -------------------------------------------|
D: -------------------------------------------|
A: ----------xx-5-5--xx--6-6-77-8-------------|
E: --6-6-------------------------------x-1----|

1:55-2:00sec
G: ------------------------------------------------|(not completely sure on this part)
D: ----8--6-5-------------------(missing notes)----|
A: -----------8-6-5-x-6--7-8-----------------------|
E: --6--x----------------------x-1-----------------|

2:01-2:11sec
G: -----------------------------------------------------|
D: -------------------------------------------(2 times)-|
A: ----------xx-5-5--xx--6-6-77-8-----------------------|
E: --6-6-------------------------------x-1--------------|

2:11-2:27sec
G: -------------------------------------------------|
D: --3---5-5---6--6-5-5--3--3---5-5---6--6-5-5--3---|
A: --1---3-3---4--4-3-3--1--1---3-3---4--4-3-3--1---|
E: -------------------------------------------------|

G: ----------------------------------------------------|
D: ----------------------------------------------------|
A: -------5-5--6-6-8-----------5-5--6-6-8-(hold note)--|
E: --6-6--------------1/6--6-6-------------------------|

2:27-2:38sec
G: ---------------------------------------------------------|
D: ------------------------------------------3-5--3-5/7-----|
A: --------8-10---10----1-35----5----3-5-------------------|
E: --8-10---------------------------------------------------|

G: --15-13----------13---------------------------------|
D: --------15-14-13----15-13-11--14-13-11-------13-----|
A: ---------------------------------------11-13----13--|
E: --(not completely correct, again missing notes)-----|

After That It Gets Preety Confuzing cuz well its Jaco! but other than that there you go





Comments


Popular Jaco Pastorius tabs & chords
Amerika 1 Bass Tabs
Blackbird Bass Tabs
Chicken Bass Tabs
Chicken 1 Bass Tabs
Chromatic Fantasy 1 Bass Tabs
Come On Come Over 2 Bass Tabs
Donna Lee Bass Tabs
Invite Bass Tabs
Okonkole Y Trompa Bass Tabs
Portrait Of Tracy Bass Tabs


Song lyrics



↑ Back to top | Tablatures and chords are parodies/interpretations of the original songs. You may use it for private study, scholarship, research or language learning purposes only
© 2014 AZChords.com Contact us | Privacy policy | DMCA | Add/correct tabs | Request tabs | Top 50 tabs