» » »

Jaco Pastorius, Chicken Bass tabs (ver.2)

Artists:  A B C D E F G H I J K L M N O P Q R S T U V W X Y Z # 

Chicken Bass tabs (ver.2)

Jaco Pastorius Tabs
 Rating:
4.7/5 (14 votes)
Chicken lessons Tabs too difficult? Try these video lessons and learn fast
                1.
G[------------------------------------------------]
D[----------58------------------------------------]
A[-----55668--------------------------------------]
E[--66--------------------------------------------] x8
 
2.
G[--------58--------------------------------------]
D[----55668---------------------------------------]
A[--66--------------------------------------------]
E[------------------------------------------------] x2   

3.
G[---------47-------------------------------------]
D[----44557---------------------------------------]
A[--55--------------------------------------------]
E[------------------------------------------------]   

4.
G[------------------------------------------------]
D[---------25-------------------------------------] 
A[----22335---------------------------------------]
E[--33-------------------------------------------] 

5.
G[---------2-------------------------------------]
D[----2233---------------------------------------]
A[--33-------------------------------------------]
E[-----------------------------------------------]

6.
G[--3-1-----------3-------------------------------]
D[------3-1---------------------------------------]
A[----------4-1-----------------------------------]
E[--------------4---------------------------------]  

SOLO(when you play the first verse for third time)  

G[----15-19---------------------------------------]
D[--15--------------------------------------------]
A[------------------------------------------------]
E[------------------------------------------------] 


G[--------15-19-15--15--15-20-19------------------]
D[--15-17-------------17--------------------------]
A[------------------------------------------------]
E[------------------------------------------------]

G[---------------------15--14-14-14-12--12------]  
D[--17-15-------13--13-13-------------14--------]
A[-------17-15----15----------------------------]
E[----------------------------------------------]


G[-------15-19-15--------------------------------]
D[--15-19----------------------------------------]
A[-----------------------------------------------]
E[-----------------------------------------------]   X3

G[--14-12------------15--------------------------]
D[-------14-12-----------------------------------]
A[------------15-12------------------------------]
E[-----------------15----------------------------]
            
Submit corrections

comments powered by Disqus
↑ Back to top | Jaco Pastorius Bass for Chicken. Lyrics for acoustic guitar and electric guitar. Tablatures and chords are parodies/interpretations of the original songs. You may use it for private study, scholarship, research or language learning purposes only