» » »

Second Minute Or Hour Bass tabs (ver.3)

Artists:  A B C D E F G H I J K L M N O P Q R S T U V W X Y Z # 

Second Minute Or Hour Bass tabs (ver.3)

Jack Penate
Rating:
0/5 (0 votes)

Hard to play? Try these video lessons and learn fast.
                Second attempt at this song, seeing as last time my bass was out of tune and thus tabbed 
bit too high!

Whole song here now, hope it's good enough for you.


Verses:

G---------------------------------------------|
D---------------------------------------------|
A-4-4-/1-1-\4-4-/1-1-\4-4-/1-1-2-2-----4-4----|
E----------------------------------2-2--------|


Bridge:

G------------------------|
D--4---4-----------------|
A----4---4--6---6---4----|
E-------------6---6------|


Chorus:

G-------------------------|
D---------------3-6-------|
A---1-4---3-6-4-------1-4-|
E-2-----4-----------2-----|
            
Hard to play? Try these video lessons and learn fast. | Correct




comments powered by Disqus
↑ Back to top | Tablatures and chords are parodies/interpretations of the original songs. You may use it for private study, scholarship, research or language learning purposes only