» » »

Second Minute Or Hour Bass tabs (ver.2)

Artists:  A B C D E F G H I J K L M N O P Q R S T U V W X Y Z # 

Second Minute Or Hour Bass tabs (ver.2)

Jack Penate
Rating:
0/5 (0 votes)

Hard to play? Try these video lessons and learn fast.
                Hi guys, first time doing this. Good bass line to this song but only got parts of it. 
about that, but yeah, it might not even be 100% but it's still part of the way to it.

Verses:

G-----------------------------------------------|
D-----------------------------------------------|
A-5-5-/2-2-\5-5-/2-2-\5-5-/2-2-3-3----5-5   x 2-|
E----------------------------------4-4----------|

Not too sure about the pre-chorus, but like I said, this is basic!


Chorus:

G-------------------------|
D---------------4-7-------|
A---2-5---4-7-5-------2-5-|
E-3-----5-----------3-----|

Sorry it's not too in depth, but basic. Hope it helps to some extent.
            
Hard to play? Try these video lessons and learn fast. | Correct




comments powered by Disqus
↑ Back to top | Tablatures and chords are parodies/interpretations of the original songs. You may use it for private study, scholarship, research or language learning purposes only