» » »

Jack Off Jill, American Made Bass tabs (ver.2)

Artists:  A B C D E F G H I J K L M N O P Q R S T U V W X Y Z # 

American Made Bass tabs (ver.2)

Jack Off Jill Tabs
 Rating:
4/5 (4 votes)
American Made lessons Tabs too difficult? Try these video lessons and learn fast
                "American Made" by Jack off Jill (from Sexless Demons and Scars)

Intro/Verse - "Give me some antiseptic..."
Also fill - "Mama's apple pie's got a cockaroach candy.."
G-----------------------------------------------------
D-----------------------------------------------------
A-----------------------------------------------55-44-
E-2-2--2-2--2-2--2-2--55-44--2-2--2-2--2-2--2-2-------

Pre Chrous - "Give me a cake, that I can mix and bake"/"Give me a mate, in a crippled 

state..."
G------------------------------
D------------------------------
A--------------------------454-
E-2--5-4--2-454--2--5-4--2-----

Chorus - "Bake it up and we will stab stab stab..."
G----------------------------------
D----------------------------------
A-5-5--2-2-2-2--3/2-3/2-32-3/2-2-2-
E----------------------------------

Outro - *Random growling/screaming*(repeat the first bit, for the very end add the "2-2-2" 

(you can tell when it happens in the song))
G----------------|----------
D----------------|----------
A-3/2-3/2-32-3/2-|-2-2-2--
E----------------|----------

---
            
Submit corrections

comments powered by Disqus
↑ Back to top | Jack Off Jill Bass for American Made. Lyrics for acoustic guitar and electric guitar. Tablatures and chords are parodies/interpretations of the original songs. You may use it for private study, scholarship, research or language learning purposes only