» » »

Jack Off Jill, American Made Bass tabs (ver.1)

Artists:  A B C D E F G H I J K L M N O P Q R S T U V W X Y Z # 

American Made Bass tabs (ver.1)

Jack Off Jill Tabs
Rating:
0/5 (0 votes)
American Made lessons Tabs too difficult? Try these video lessons and learn fast
                Verse Part 1 
G------------------------------------------------------- D-------------------------------------------------------
A-----------------------------------------------55-44- E---22-22-22-222-55-44--22-22-22-222--------- 

Verse Part 2 
G--------------------------------- 
D--------------------------------- 
A-----------------5-4h5p4----- 
E---2--5-4---2------------------ 

Chorus 
G----------------------------------------------- 
D----------------------------------------------- 
A---5-5-5-2-2-2-322-322-322-322-2-2-- 
E----------------------------------------------- 

Play Verse Part 1 during “ Momma’s apple pie…” 

Ending 
G----------------------------------- 
D----------------------------------- 
A----322-322-322-322-2-2---- 
E------------------------------------ 
            

comments powered by Disqus
↑ Back to top | Jack Off Jill Bass for American Made. Lyrics for acoustic guitar and electric guitar. Tablatures and chords are parodies/interpretations of the original songs. You may use it for private study, scholarship, research or language learning purposes only