» » »

The News Tabs (ver.2)

Artists:  A B C D E F G H I J K L M N O P Q R S T U V W X Y Z # 

The News Tabs (ver.2)

Jack Johnson
Rating:
0/5 (0 votes)

Hard to play? Try these video lessons and learn fast.
                Intro
e--------------------------
b---2---2---2---2---2---2-- x2
g----2---2-------2---2-----
d-----2---2-------2---2----
a--0-----------0-----------
e--------------------------

verse
e--------------------------------------------------
b---2---2---2---2---2---2---3---3---3---3---3---3-- x2
g----2---2-------2---2-------4---4-------4---4-----
d-----2---2-------2---2-------4---4-------4---4----
a--0-----------0-----------2-----------2-----------
e--------------------------------------------------

chorus
e--------------------------------------------------
b---2---2---2---2---2---2---5---5---5---5---5---5--
g----2---2-------2---2-------6---6-------6---6-----
d-----2---2-------2---2-------6---6-------6---6----
a--0-----------0-----------4-----------4-----------
e--------------------------------------------------

e--------------------------------------------------
b---3---3---3---3---3---3---7---7---7---6---6---6--
g----4---4-------4---4-------7---7-------7---7-----
d-----4---4-------4---4-------7---7-------7---7----
a--2-----------2-----------5-----------5-----------
e--------------------------------------------------

verse
e--------------------------------------------------
b---2---2---2---2---2---2---3---3---3---3---3---3-- x3
g----2---2-------2---2-------4---4-------4---4-----
d-----2---2-------2---2-------4---4-------4---4----
a--0-----------0-----------2-----------2-----------
e--------------------------------------------------

chorus
e--------------------------------------------------
b---2---2---2---2---2---2---5---5---5---5---5---5--
g----2---2-------2---2-------6---6-------6---6-----
d-----2---2-------2---2-------6---6-------6---6----
a--0-----------0-----------4-----------4-----------
e--------------------------------------------------

e--------------------------------------------------
b---3---3---3---3---3---3---7---7---7---6---6---6--
g----4---4-------4---4-------7---7-------7---7-----
d-----4---4-------4---4-------7---7-------7---7----
a--2-----------2-----------5-----------5-----------
e--------------------------------------------------

bridge
e--------------------------------------------------
b---3---3---3---3---3---3---2---2---2---2---2---2--
g----4---4-------4---4-------2---2-------2---2-----
d-----4---4-------4---4-------4---4-------4---4----
a--2-----------2-----------------------------------
e--------------------------2-----------2-----------

e--------------------------------------------------
b---2---2---2---2---2---2---0---0---0---0---0---0--
g----2---2-------2---2-------1---1-------1---1-----
d-----2---2-------2---2-------2---2-------2---2----
a--0-----------0-----------------------------------
e--------------------------0-----------0-----------

verse
e--------------------------------------------------
b---2---2---2---2---2---2---3---3---3---3---3---3-- x2
g----2---2-------2---2-------4---4-------4---4-----
d-----2---2-------2---2-------4---4-------4---4----
a--0-----------0-----------2-----------2-----------
e--------------------------------------------------

chorus
e--------------------------------------------------
b---2---2---2---2---2---2---5---5---5---5---5---5--
g----2---2-------2---2-------6---6-------6---6-----
d-----2---2-------2---2-------6---6-------6---6----
a--0-----------0-----------4-----------4-----------
e--------------------------------------------------

e--------------------------------------------------
b---3---3---3---3---3---3---7---7---7---6---6---6--
g----4---4-------4---4-------7---7-------7---7-----
d-----4---4-------4---4-------7---7-------7---7----
a--2-----------2-----------5-----------5-----------
e--------------------------------------------------

outro
e--------------------------------------------------
b---2---2---2---2---2---2---3---3---3---3---3---3--
g----2---2-------2---2-------4---4-------4---4-----
d-----2---2-------2---2-------4---4-------4---4----
a--0-----------0-----------2-----------2-----------
e--------------------------------------------------

e-----
b--2--
g--2--
d--2--
a--0--
e-----
            
Hard to play? Try these video lessons and learn fast. | Correct




comments powered by Disqus
↑ Back to top | Tablatures and chords are parodies/interpretations of the original songs. You may use it for private study, scholarship, research or language learning purposes only