>
 >
The News

The News Guitar Tabs

Jack Johnson - The News chords, tabs, tablatures, lyrics

Guitar lessons | Add/correct | Request | Top 50 tabs Artists:  A B C D E F G H I J K L M N O P Q R S T U V W X Y Z 0-9

The News Guitar Tabs – Jack Johnson

CD, Sheet music, Poster

Do you like The News? Share with your friends now
ChordsChords v2Chords v3TabsTabs v2Ukulele
PROPS GO TO: marty

Jack Johnson
The news

Intro (repeat twice) 

e |---------------------------------|
b |---2-----2-----2---2-----2-----2-|
g |-----2-----2---------2-----2-----|
d |-------2-----2---------2-----2---|
a |-0---------------0---------------|
e |---------------------------------|

Verse (repeat twice)

e |--------------------------------------------------------|
b |---2-----2-----2---2-----2-----2---3-----3-----3---3----|
g |-----2-----2---------2-----2---------4-----4---------4--|
d |-------2-----2---------2-----2---------4-----4---------4|
a |-0---------------0---------------2---------------2------|
e |--------------------------------------------------------|

e |----------|
b |-3-----3--|
g |---4------|
d |-----4----|
a |----------|
e |----------|

Chorus

e |--------------------------------------------------------|
b |---2-----2-----2---2-----2-----2---5-----5----5---5-----|
g |-----2-----2---------2-----2---------6-----6--------6---|
d |-------2-----2---------2-----2---------6-----6--------6-|
a |-0---------------0---------------4--------------4-------|
e |--------------------------------------------------------|

e |--------------------------------------------------------|
b |-5-----5---3-----3-----3---3-----3-----3---7-----7------|
g |---6---------4-----4---------4-----4---------7-----7----|
d |-----6---------4-----4---------4-----4---------7-----7--|
a |---------2---------------2---------------5--------------|
e |--------------------------------------------------------|

e |---------------------|
b |-7---6-----6-----6---|
g |-------7-----7-------|
d |---------7-----7-----|
a |---5-----------------|
e |---------------------|

Verse (repeat three times)

Next Chorus

e |--------------------------------------------------------|
b |---2-----2-----2---2-----2-----2---5-----5-----5---5----|
g |-----2-----2---------2-----2---------6-----6---------6--|
d |-------2-----2---------2-----2---------6-----6---------6|
a |-0---------------0---------------4---------------4------|
e |--------------------------------------------------------|

e |--------------------------------------------------------|
b |-5-----5---3-----3-----3---3-----3-----3---7-----7------|
g |---6---------4-----4---------4-----4---------7-----7----|
c |-----6---------4-----4---------4-----4---------7-----7--|
a |---------2---------------2---------------5--------------|
e |--------------------------------------------------------|

e |--------------------------------------------------------|
b |-7---5-----5-----5----3-----3-----3---3-----3-----3-----|
g |-------6-----6----------4-----4---------4-----4---------|
d |---------6-----6----------4-----4---------4-----4-------|
a |---4----------------2---------------2-------------------|
e |--------------------------------------------------------|

e |--------------------------------------------------------|
b |---2-----2-----2---2-----2-----2---3-----3-----3---3----|
g |-----2-----2---------2-----2---------4-----4---------4--|
d |-------4-----4---------4-----4---------4-----4---------4|
a |---------------------------------2---------------2------|
e |-2---------------2--------------------------------------|

e |------------------------------------------|
b |-3-----3---2-----2-----2---2-----2-----2--|
g |---4---------2-----2---------2-----2------|
d |-----4---------4-----4---------4-----4----|
a |------------------------------------------|
e |---------2---------------2----------------|

Then

e |--------------------------------------------------------|
b |---2-----2-----2---2-----2-----2---0-----0-----0---0----|
g |-----2-----2---------2-----2---------1-----1---------1--|
d |-------2-----2---------2-----2---------2-----2---------2|
a |-0---------------0--------------------------------------|
e |---------------------------------0---------------0------|

e |---------------|
b |-0-----0-------|
g |---1-----------|
d |-----2---------|
a |---------------|
e |---------------|

Verse (repeat twice)

Chorus

Verse 

Final

e |-------------------------------------------------------|
b |---2-----2-----2---2-----2-----2----3-----3-----3------|
g |-----2-----2---------2-----2----------4-----4----------|
d |-------2-----2---------2-----2----------4-----4--------|
a |-0---------------0----------------2---------------2----|
e |-------------------------------------------------------|

e |---------------------|
b |-3-----3-----3-------|
g |---4-----4-----------|
d |-----4-----4---------|
a |----------------0----|
e |---------------------|





Comments


Popular Jack Johnson tabs & chords
Breakdown Bass Tabs
Mediocre Bad Guys 1 Chords
Rodeo Clowns 2 Chords
With My Own Two Hands Chords
Constellations 1 Tabs
Who Knows Tabs
You And Your Heart 5 Tabs
Free Ukulele
Losing Hope Ukulele
Swim Ashore Ukulele


Song lyrics



↑ Back to top | Tablatures and chords are parodies/interpretations of the original songs. You may use it for private study, scholarship, research or language learning purposes only
© 2014 AZChords.com Contact us | Privacy policy | DMCA | Add/correct tabs | Request tabs | Top 50 tabs