>
 >
The Horizon Has Been Defeated 2

The Horizon Has Been Defeated 2 Guitar Tabs

Jack Johnson - The Horizon Has Been Defeated 2 chords, tabs, tablatures, lyrics

Guitar lessons | Add/correct | Request | Top 50 tabs Artists:  A B C D E F G H I J K L M N O P Q R S T U V W X Y Z 0-9

The Horizon Has Been Defeated 2 Guitar Tabs – Jack Johnson

CD, Sheet music, Poster

Do you like The Horizon Has Been Defeated 2? Share with your friends now
Bass TabsChordsChords v2TabsTabs v2Tabs v3Ukulele


Intro
|-----------|--2-2---4-4---------2-2--
|-----------|--2-2---4-4---5-5---2-2--
|--X-X-X-X--|--3-3---4-4---5-5---3-3--
|--X-X-X-X--|--------------5-5--------
|--X-X-X-X--|--------------3-3--------
|--X-X-X-X--|-------------------------
            pm........................

|--2-2---4-4---------2-2--
|--2-2---4-4---5-5---2-2--
|--3-3---4-4---5-5---3-3--
|--------------5-5--------
|--------------3-3--------
|-------------------------
pm........................


Verse
|--2-2---4-4---------2-2--
|--2-2---4-4---5-5---2-2--
|--3-3---4-4---5-5---3-3-- repeat x 3
|--------------5-5--------
|--------------3-3--------
|-------------------------
pm........................

|--2-2---4-4----------1---
|--2-2---4-4---5-5----2---
|--3-3---4-4---5-5----1---
|--------------5-5--------
|--------------3-3--------
|-------------------------
pm..................

Chorus
                "...fade,fade,fade....."
|--2-2---4-4---------4-4--2-2--2-2--2-2-
|--2-2---4-4---5-5---4-4--2-2--2-2--2-2-
|--3-3---4-4---5-5---4-4--3-3--3-3--3-3-
|--------------5-5----------------------
|--------------3-3----------------------
|---------------------------------------

Horizon has been defeated
By the pirates of the new-age
Alien casinos
Or maybe it's just time to say
That things can go bad
And make you wanna run away
But as we grow older the trouble just seems to stay

Future complications
And the strings between the cans
But no prints can come from fingers
If machines become our hands
And then our feet become the wheels
And then the wheels become the cars
And then the rigs begin to drill
Until the drilling goes too far

Chorus:

That things can go bad
And make you wanna run away
But as we grow older
Horizon begins to fade, fade, fade
Fade, fade, away

But Thingamajigsaw puzzle
Anger don't you step to close
'Cos people are lonely
And only animals with fancy shoes
Halleluejah zig-zag nothin'
When misery is on the loose
'Cos people are lonely
And only animals with too many tools
They can build all the junk that we sell
Argh sometimes man it make you wanna yell

Chorus





Comments


Popular Jack Johnson tabs & chords
Flake Bass Tabs
Traffic In The Sky Bass Tabs
Fall Line 1 Chords
Jungle Gym Chords
Sitting Waiting Wishing Live Chords
You And Your Heart 9 Chords
Bad Fish 1 Tabs
You And Your Heart 4 Tabs
Flake 2 Ukulele
Rainbow Ukulele


Song lyrics



↑ Back to top | Tablatures and chords are parodies/interpretations of the original songs. You may use it for private study, scholarship, research or language learning purposes only
© 2014 AZChords.com Contact us | Privacy policy | DMCA | Add/correct tabs | Request tabs | Top 50 tabs