» » »

Jack Johnson, Horizon Has Been Defeated Tabs (ver.1)

Artists:  A B C D E F G H I J K L M N O P Q R S T U V W X Y Z # 

Horizon Has Been Defeated Tabs (ver.1)

Jack Johnson Tabs
 Rating:
4/5 (4 votes)
Horizon Has Been Defeated lessons Tabs too difficult? Try these video lessons and learn fast
                Song – The Horizon Has Been Defeated
Artist – Jack Johnson
Album – On and On
Tuning – Standard

Intro
|---------2------------2------------7------------2---------|
|---------2------------4------------9------------2---------|
|---------3------------4------------9------------3---------|
|---------4----4-4-4-4-4----9-9-9-9-9------------4---------|
|-4-4-4-4-4----2-2-2-2-2----7-7-7-7-7----4-4-4-4-4---------|
|-2-2-2-2-2------------------------------2-2-2-2-2---------|

Verse
|---------2------------2------------7------------2---------|
|---------2------------4------------9------------2---------|
|---------3------------4------------9------------3---------|
|---------4----4-4-4-4-4----9-9-9-9-9------------4---------|
|-4-4-4-4-4----2-2-2-2-2----7-7-7-7-7----4-4-4-4-4---------| X3
|-2-2-2-2-2------------------------------2-2-2-2-2---------|

|---------2------------2------------7----4~----------------|
|---------2------------4------------9----6~----------------|
|---------3------------4------------9----6~----------------|
|---------4----4-4-4-4-4----9-9-9-9-9----6~----------------|
|-4-4-4-4-4----2-2-2-2-2----7-7-7-7-7----4~----------------|
|-2-2-2-2-2------------------------------------------------|

Chorus
|---------2------------2------------7------------2---------|
|---------2------------4------------9------------2---------|
|---------3------------4------------9------------3---------|
|---------4----4-4-4-4-4----9-9-9-9-9------------4---------|
|-4-4-4-4-4----2-2-2-2-2----7-7-7-7-7----4-4-4-4-4---------|
|-2-2-2-2-2------------------------------2-2-2-2-2---------|

|---------2------------2------------7----------------------|
|---------2------------4------------9----------------------|
|---------3------------4------------9----------------------|
|---------4----4-4-4-4-4----9-9-9-9-9----------------------|
|-4-4-4-4-4----2-2-2-2-2----7-7-7-7-7----------------------|
|-2-2-2-2-2------------------------------------------------|

|---------4------------2------------2------------2---------|
|---------6------------4------------2------------2---------|
|---------6------------4------------3------------3---------|
|-6-6-6-6-6----4-4-4-4-4------------4------------4---------|
|-4-4-4-4-4----2-2-2-2-2----4-4-4-4-4----4-4-4-4-4---------| X2
|---------------------------2-2-2-2-2----2-2-2-2-2---------|

Outro
|---------4------------2------------2------------2---------|
|---------6------------4------------2------------2---------|
|---------6------------4------------3------------3---------|
|-6-6-6-6-6----4-4-4-4-4------------4------------4---------|
|-4-4-4-4-4----2-2-2-2-2----4-4-4-4-4----4-4-4-4-4---------|
|---------------------------2-2-2-2-2----2-2-2-2-2---------|

|---------4------------2------------2----2~-|
|---------6------------4------------2----2~-|
|---------6------------4------------3----3~-|
|-6-6-6-6-6----4-4-4-4-4------------4----4~-|
|-4-4-4-4-4----2-2-2-2-2----4-4-4-4-4----4~-|
|---------------------------2-2-2-2-2----2~-|

Song structure
Intro x2
Verse x2
Chorus
Verse
Chorus
Outro
            
Submit corrections

comments powered by Disqus
↑ Back to top | Jack Johnson Tabs for Horizon Has Been Defeated. Lyrics for acoustic guitar and electric guitar. Tablatures and chords are parodies/interpretations of the original songs. You may use it for private study, scholarship, research or language learning purposes only