» » »

Sitting Waiting Wishing Bass tabs (ver.1)

Artists:  A B C D E F G H I J K L M N O P Q R S T U V W X Y Z # 

Sitting Waiting Wishing Bass tabs (ver.1)

Jack Johnson
Rating:
0/5 (0 votes)

Hard to play? Try these video lessons and learn fast.
                Sitting, Waiting, Wishing by Jack Johnson

Sit out the first verse and chorus and then come in with:

Verse 2
G--------------------------------------------------------|
D--------------------------------------------------------|
A------------------------------333333-5------ repeat x3 -|
E-55-5555-5533-3333-33111111-11--------------------------|

Chorus 2
G---------------------------------------------------------|
D-------------------------------------------- repeat x2 --|
A---------------------------------------------------------|
E-000-00-000-00-000-00-000-00-555-55-555-55-555-55-555-55-|

Bridge
G---------------------------------------------------------|
D-----------------------------333-33-333-33-555-55-333-33-|
A-23-333-33-333-222-22-222-22-----------------------------|
E---------------------------------------------------------|

G---------------------------------------------------------|
D-----------------------------333-33-333-33-555-55-555-55-|
A-333-33-333-33-222-22-222-22-----------------------------|
E---------------------------------------------------------|

Verse 3
G--------------------------------------------------------|
D--------------------------------------------------------|
A------------------------------333333-5------ repeat x4 -|
E-55-5555-5533-3333-33111111-11--------------------------|


Chorus 3 (to outro)
G---------------------------------------------------------|
D-------------------------------------------- repeat x4 --|
A---------------------------------------------------------|
E-000-00-000-00-000-00-000-00-555-55-555-55-555-55-555-55-|

Outro
G--------------------------------------------------------|
D--------------------------------------------------------|
A-3-0~---------------------------------------------------|
E--------------------------------------------------------|

END
            
Hard to play? Try these video lessons and learn fast. | Correct




comments powered by Disqus
↑ Back to top | Tablatures and chords are parodies/interpretations of the original songs. You may use it for private study, scholarship, research or language learning purposes only