» » »

Jack Johnson, Sitting Waiting Wishing Bass tabs (ver.2)

Artists:  A B C D E F G H I J K L M N O P Q R S T U V W X Y Z # 

Sitting Waiting Wishing Bass tabs (ver.2)

Jack Johnson Tabs
Rating:
0/5 (0 votes)
Hard to play? Try these video lessons and learn fast.
                -------------------------------------------------------------------------------
		SITTING WAITING WISHING - jACK jOHNSON
-------------------------------------------------------------------------------


Tuning: Standard (EADG)

I tabbed this by ear and everything sounds right to me,I left some space for improvising,enjoy!

Intro/Verse:
G|---------------------------------------------------------------------------|
D|---------------------------------------------------------------------------|
A|--9-9-9-9-----------------7777--------5555-------3333----------------------|
E|----------10-10-10-10----------8888-------7777--------5555-----------------|

Chorus:
G|------------------------------------9------}-Play this---------------------|
D|---------------------------1-1-1/7-----7---}--3-Times----------------------|
A|--77777777--99999999-------------------------------------------------------|
E|---------------------------------------------------------------------------|
 ...always be waiting...

Bridge:
G|---------------------------------------------------------------------------|
D|-----------------------33333333--55--33------------------------------------|
A|--77777777--99999999---------------------55--33----------------------------|
E|---------------------------------------------------------------------------|

G|---------------------------------------------------------------------------|
D|---------------------------------------------------------------------------|
A|--77777777--99999999--12-12-12-12-12-12-12-12--11-11-11-11--10-10-10-10\5--|
E|---------------------------------------------------------------------------|

Song Structure:  1.) 1x Intro
                 2.) 2x Verse
                 3.) 1x Chorus
                 4.) 2x Verse
                 5.) 1x Chorus
                 6.) 1x Bridge
                 7.) 4x Verse
                 8.) 2x Chorus


| /  slide up
| \  slide down

===============================================================================
            

comments powered by Disqus
↑ Back to top | Jack Johnson Bass for Sitting Waiting Wishing. Lyrics for acoustic guitar and electric guitar. Tablatures and chords are parodies/interpretations of the original songs. You may use it for private study, scholarship, research or language learning purposes only