» » »

Rodeo Clowns Tabs (ver.2)

Artists:  A B C D E F G H I J K L M N O P Q R S T U V W X Y Z # 

Rodeo Clowns Tabs (ver.2)

Jack Johnson
Rating:
0/5 (0 votes)

Hard to play? Try these video lessons and learn fast.
                Verse chords
---5---3---6---5------------------]
---6---3---6---5------------------]
---7---4---7---6------------------]
---7---5---8---7------------------]
---5---5---8---7------------------]
-------3---6---5------------------]

chorus
---5---5---6---3------------------]
---6---5---6---3------------------]
---7---6---7---4------------------]
---7---7---8---5------------------]
---5---7---8---5------------------]
-------5---6---3------------------]

that’s it, easy as you can get-
            
Hard to play? Try these video lessons and learn fast. | Correct




comments powered by Disqus
↑ Back to top | Tablatures and chords are parodies/interpretations of the original songs. You may use it for private study, scholarship, research or language learning purposes only