» » »

Rodeo Clowns Tabs (ver.1)

Artists:  A B C D E F G H I J K L M N O P Q R S T U V W X Y Z # 

Rodeo Clowns Tabs (ver.1)

Jack Johnson
Rating:
0/5 (0 votes)

Tabs too difficult? Try these video lessons and learn fast.
                “Rodeo Clowns”
Jack Johnson

Standard Tuning

Most of the song is played on this Cd with a slight palm mute, although
you don’t have to.

Intro

|---4--5--7--5--4h5p4--4----5--4--------4---4--2--------4--2--0---|
|----------------------5----------5--0--5---5-----2---------------|
|----------------------6----------------6---6--------2------------|
|-----------------------------------------------------------------|
|-----------------------------------------------------------------|
|-----------------------------------------------------------------|

|--------4----4-4-X-4-4-4-X-X-X-X-2-2-X-2-2-2-X-X-X-X-------------|
|---4h5--5----5-5-X-5-5-5-X-X-X-X-2-2-X-2-2-2-X-X-X-X-------------|
|--------4----6-6-X-6-6-6-X-X-X-X-3-3-X-3-3-3-X-X-X-X-------------|
|-------------6-6-X-6-6-6-X-X-X-X-4-4-X-4-4-4-X-X-X-X-------------|
|-------------4-4-X-4-4-4-X-X-X-X-4-4-X-4-4-4-X-X-X-X-------------|
|-------------4-4-X-4-4-4-X-X-X-X-2-2-X-2-2-2-X-X-X-X-------------|

|-------------5-5-X-5-5-5-X-X-X-X-4-------------------------------|
|-------------5-5-X-5-5-5-X-X-X-X-4-------------------------------|
|-------------6-6-X-6-6-6-X-X-X-X-5-------------------------------|
|-------------7-7-X-7-7-7-X-X-X-X-6-------------------------------|
|-------------7-7-X-7-7-7-X-X-X-X-6-------------------------------|
|-------------5-5-X-5-5-5-X-X-X-X-4-------------------------------|

Verse 

|---4-4-X-4-4-4-X-X-X-X-2-2-X-2-2-2-X-X-X-X-5-5-X-5-5-5-X-X-X-X---|
|---5-5-X-5-5-5-X-X-X-X-2-2-X-2-2-2-X-X-X-X-5-5-X-5-5-5-X-X-X-X---|
|---6-6-X-6-6-6-X-X-X-X-3-3-X-3-3-3-X-X-X-X-6-6-X-6-6-6-X-X-X-X---|
|---6-6-X-6-6-6-X-X-X-X-4-4-X-4-4-4-X-X-X-X-7-7-X-7-7-7-X-X-X-X---|
|---4-4-X-4-4-4-X-X-X-X-4-4-X-4-4-4-X-X-X-X-7-7-X-7-7-7-X-X-X-X---|
|---4-4-X-4-4-4-X-X-X-X-2-2-X-2-2-2-X-X-X-X-5-5-X-5-5-5-X-X-X-X---|

|---4-4-X-4-4-4-X-X-X-X-------------------------------------------|
|---4-4-X-4-4-4-X-X-X-X-------------------------------------------|
|---5-5-X-5-5-5-X-X-X-X-------------------------------------------|
|---6-6-X-6-6-6-X-X-X-X-------------------------------------------|
|---6-6-X-6-6-6-X-X-X-X-------------------------------------------|
|---4-4-X-4-4-4-X-X-X-X-------------------------------------------|

Chorus

|---4-4-X-4-4-4-X-X-X-X-5-5-X-2-2-2-X-X-X-X-----------------------|
|---5-5-X-4-4-4-X-X-X-X-5-5-X-2-2-2-X-X-X-X-----------------------|
|---6-6-X-5-5-5-X-X-X-X-6-6-X-3-3-3-X-X-X-X-----------------------|
|---6-6-X-6-6-6-X-X-X-X-7-7-X-4-4-4-X-X-X-X-----------------------|
|---4-4-X-6-6-6-X-X-X-X-7-7-X-4-4-4-X-X-X-X-----------------------|
|---4-4-X-4-4-4-X-X-X-X-5-5-X-2-2-2-X-X-X-X-----------------------|
            
Tabs too difficult? Try these video lessons and learn fast.




comments powered by Disqus
↑ Back to top | Tablatures and chords are parodies/interpretations of the original songs. You may use it for private study, scholarship, research or language learning purposes only