» » »

Jack Johnson, Fortunate Fool Bass tabs (ver.1)

Artists:  A B C D E F G H I J K L M N O P Q R S T U V W X Y Z # 

Fortunate Fool Bass tabs (ver.1)

Jack Johnson Tabs
 Rating:
4/5 (4 votes)
Fortunate Fool lessons Tabs too difficult? Try these video lessons and learn fast
                intro:
G|---------------------------------|
D|-9-------------------------------|
A|---11--10--9---------------------|
E|---------------------------------|
Verse:

G|---------------------------------|
D|--9--9--11-13--------------------|
A|--------------11-----------------|
E|---------------------------------|
Verse 2:

G|---------------------------------|
D|-----11-11-----11-11-------------|
A|--11-------9-9-------9-----------|
E|---------------------------------|
Chorus:

G|----------------------------------------|
D|--------------9-----------9-------------|
A|-7-77-7-9-99----11--9--7------11--9--7--|
E|----------------------------------------|
            
Submit corrections

comments powered by Disqus
↑ Back to top | Jack Johnson Bass for Fortunate Fool. Lyrics for acoustic guitar and electric guitar. Tablatures and chords are parodies/interpretations of the original songs. You may use it for private study, scholarship, research or language learning purposes only