>
 >
Fortunate Fool 1

Fortunate Fool 1 Guitar Tabs

Jack Johnson - Fortunate Fool 1 chords, tabs, tablatures, lyrics

Guitar lessons | Add/correct | Request | Top 50 tabs Artists:  A B C D E F G H I J K L M N O P Q R S T U V W X Y Z 0-9

Fortunate Fool 1 Guitar Tabs – Jack Johnson

CD, Sheet music, Poster

Do you like Fortunate Fool 1? Share with your friends now
Bass TabsBass Tabs v2ChordsChords v2TabsTabs v2Ukulele
e|-----------------------------------------------------------------------------------
b|----------------------------------------------------------------------------------
g|-----------------------------------------------------------------------------------
d|-----------------------------------------------------------------------------------
a|-2---2---------------------------2-2---4---6------2-2---4---6-------2-2---4---6----
e|--------4---42-2----1-----------------------4------------------4----------------4-


e|------------------------------------------
b|-----------------------------------------
g|----------------------------------------
d|--------------------------------------
a|-2-2---4---6------5/6--96------
e|-----------------4------------------

e|---------------------------------
b|----------------------------------
g|---------------------------------
d|---------------------------------
a|---2---2------4---------6-------
e|--------------------------------4		x5

e|------------------------------------------------------
b|------------------------------------------------------
g|----------------------------------------------------
d|------------------------------------------------
a|-------4---4-------------4---4---------6----
e|----------------2--2--------------2------7-



e|-----------------------------------------------------------------------------------
b|-----------------------------------------------------------------------------------
g|------------------------------------------------------------------6/3-------------
d|---------------------------------------------------1-----4-------------------------
a|-4----2---2---4---6--------2-2---4---6-------------------------------------2-----4-
e|-------------------------4--------------------4------------------------------------

e|---------------------------------------------------------------------
b|------------------------------------------------------------------
g|-------------------------------------------------------------------
d|-------------------------------------------------------------------
a|---6----------2-2---4---6------2-2---4---6-------2-2---4---6------------
e-----4----------------------4------------------4-------------------4---------


e|-----------------------------------------------------------------------------------
b|-----------------------------------------------------------------------------------
g|-----------------------------------------------------------------------------------
d|-----------------------------------------------------------------------------------
a|--4--4------------4-----4------------6--------4-------2--2------4-----6---------
e|----------2---2-----------------2----------7---------------------------------4-----



e|-----------------------------------------------------------------------------------
b|-----------------------------------------------------------------------------------
g|-----------------------------------------------------------------------------------
d|----------------------------------------------------------------------------------
a|-2----2---4----6---------5/6----9----6------2------2---2-------------------
e|--------------------9-------------------------------------------2-----2-----2----

e|---------------------------------------------------------------------------------
b|---------------------------------------------------------------------------------
g|--------------------------------------------------------------------------------
d|---------------------------------------------------------------------------------
a|-2-----2--------------------------------------------2-----2--------------------
e|-----------4------4---2------2------0-------0-----------------4------4---2--


e|-----------------------------------------------------------------------------------
b|-----------------------------------------------------------------------------------
g|-----------------------------------------------------------------------------------
d|-----------------------------------------------------------------------------------
a|------------------2-----2------------------------------------------------2-----2---
e|-2------0---0----------------4------4-----2------2--------0-------0--------------



e|----------------------------------------------------------------------
b|---------------------------------------------------------------------
g|---------------------------------------------------------------------
d|--------------------------------------------------------------------
a|-------------------------------------------------------------------
e|-------44--------3--------------------------------------------

e|----------------------
b|----------------------
g|----------------------
d|----------------------
a|2-2---4---6--------
e|----------------4---       x 9


e|--------------------------------------------------------------------------
b|-------------------------------------------------------------------------
g|-------------------------------------------------------------------------
d|-------------------------------------------------------------------------
a|---4----4--------------4------------6-------4----2-2------4---6-----
e|------------2-----2--------2-----------7----------------------------4-






|---------------------------------------------------------------------------------
b|-------------------------------------------------------------------------------
g|-------------------------------------------------------------------------------
d|-------------------------------------------------------------------------------
a---2--2----4---6-------5/6-----9----6---2------2---2----------------------
e|---------------------4-------------------------------------2-------2------2--

e|-----------------------------------------------------------------------------------
b|-----------------------------------------------------------------------------------
g|-----------------------------------------------------------------------------------
d|-----------------------------------------------------------------------------------
a|-2-----2--------------------------------------------2-----2------------------------
e|-----------4------4---2------2------0-------0-----------------4------4---2------2-


e|--------------------------------------------------------------------------
b|---------------------------------------------------------------------------
g|---------------------------------------------------------------------------
d|---------------------------------------------------------------------------
a|------------------2-----2------------------------------------------------
e|-0--------0-------------------4------4---2------2------0-------0------

e|-----------------------------------
b|---------------------------------
g|---------------------------------
d|----------------------------
a|--2--2-----------------------
e|----------4-------3





Comments


Popular Jack Johnson tabs & chords
Better Together 7 Chords
The News 2 Chords
Crying Shame 2 Tabs
In The Morning Tabs
Never Know Tabs
Radiate Tabs
Sleep Through The Static Tabs
The Horizon Has Been Defeated 2 Tabs
Bad News Ukulele
Middle Man Ukulele


Song lyrics



↑ Back to top | Tablatures and chords are parodies/interpretations of the original songs. You may use it for private study, scholarship, research or language learning purposes only
© 2014 AZChords.com Contact us | Privacy policy | DMCA | Add/correct tabs | Request tabs | Top 50 tabs