» » »

Jack Johnson, Fortunate Fool Tabs (ver.2)

Artists:  A B C D E F G H I J K L M N O P Q R S T U V W X Y Z # 

Fortunate Fool Tabs (ver.2)

Jack Johnson Tabs
 Rating:
4/5 (4 votes)
Fortunate Fool lessons Tabs too difficult? Try these video lessons and learn fast
                e|-----------------------------------------------------------------------------------
b|----------------------------------------------------------------------------------
g|-----------------------------------------------------------------------------------
d|-----------------------------------------------------------------------------------
a|-2---2---------------------------2-2---4---6------2-2---4---6-------2-2---4---6----
e|--------4---4—2-2----1-----------------------4------------------4----------------4-


e|------------------------------------------
b|-----------------------------------------
g|----------------------------------------
d|--------------------------------------
a|-2-2---4---6------5/6--9—6------
e|-----------------4------------------

e|---------------------------------
b|----------------------------------
g|---------------------------------
d|---------------------------------
a|---2---2------4---------6-------
e|--------------------------------4		x5

e|------------------------------------------------------
b|------------------------------------------------------
g|----------------------------------------------------
d|------------------------------------------------
a|-------4---4-------------4---4---------6----
e|----------------2--2--------------2------7-



e|-----------------------------------------------------------------------------------
b|-----------------------------------------------------------------------------------
g|------------------------------------------------------------------6/3-------------
d|---------------------------------------------------1-----4-------------------------
a|-4----2---2---4---6--------2-2---4---6-------------------------------------2-----4-
e|-------------------------4--------------------4------------------------------------

e|---------------------------------------------------------------------
b|------------------------------------------------------------------
g|-------------------------------------------------------------------
d|-------------------------------------------------------------------
a|---6----------2-2---4---6------2-2---4---6-------2-2---4---6------------
e-----4----------------------4------------------4-------------------4---------


e|-----------------------------------------------------------------------------------
b|-----------------------------------------------------------------------------------
g|-----------------------------------------------------------------------------------
d|-----------------------------------------------------------------------------------
a|--4--4------------4-----4------------6--------4-------2--2------4-----6---------
e|----------2---2-----------------2----------7---------------------------------4-----



e|-----------------------------------------------------------------------------------
b|-----------------------------------------------------------------------------------
g|-----------------------------------------------------------------------------------
d|----------------------------------------------------------------------------------
a|-2----2---4----6---------5/6----9----6------2------2---2-------------------
e|--------------------9-------------------------------------------2-----2-----2----

e|---------------------------------------------------------------------------------
b|---------------------------------------------------------------------------------
g|--------------------------------------------------------------------------------
d|---------------------------------------------------------------------------------
a|-2-----2--------------------------------------------2-----2--------------------
e|-----------4------4---2------2------0-------0-----------------4------4---2--


e|-----------------------------------------------------------------------------------
b|-----------------------------------------------------------------------------------
g|-----------------------------------------------------------------------------------
d|-----------------------------------------------------------------------------------
a|------------------2-----2------------------------------------------------2-----2---
e|-2------0---0----------------4------4-----2------2--------0-------0--------------



e|----------------------------------------------------------------------
b|---------------------------------------------------------------------
g|---------------------------------------------------------------------
d|--------------------------------------------------------------------
a|-------------------------------------------------------------------
e|-------4—4--------3--------------------------------------------

e|----------------------
b|----------------------
g|----------------------
d|----------------------
a|2-2---4---6--------
e|----------------4---       x 9


e|--------------------------------------------------------------------------
b|-------------------------------------------------------------------------
g|-------------------------------------------------------------------------
d|-------------------------------------------------------------------------
a|---4----4--------------4------------6-------4----2-2------4---6-----
e|------------2-----2--------2-----------7----------------------------4-






|---------------------------------------------------------------------------------
b|-------------------------------------------------------------------------------
g|-------------------------------------------------------------------------------
d|-------------------------------------------------------------------------------
a---2--2----4---6-------5/6-----9----6---2------2---2----------------------
e|---------------------4-------------------------------------2-------2------2--

e|-----------------------------------------------------------------------------------
b|-----------------------------------------------------------------------------------
g|-----------------------------------------------------------------------------------
d|-----------------------------------------------------------------------------------
a|-2-----2--------------------------------------------2-----2------------------------
e|-----------4------4---2------2------0-------0-----------------4------4---2------2-


e|--------------------------------------------------------------------------
b|---------------------------------------------------------------------------
g|---------------------------------------------------------------------------
d|---------------------------------------------------------------------------
a|------------------2-----2------------------------------------------------
e|-0--------0-------------------4------4---2------2------0-------0------

e|-----------------------------------
b|---------------------------------
g|---------------------------------
d|----------------------------
a|--2--2-----------------------
e|----------4-------3
            
Submit corrections

comments powered by Disqus
↑ Back to top | Jack Johnson Tabs for Fortunate Fool. Lyrics for acoustic guitar and electric guitar. Tablatures and chords are parodies/interpretations of the original songs. You may use it for private study, scholarship, research or language learning purposes only