» » »

Jack Johnson, Flake Tabs (ver.1)

Artists:  A B C D E F G H I J K L M N O P Q R S T U V W X Y Z # 

Flake Tabs (ver.1)

Jack Johnson Tabs
Rating:
0/5 (0 votes)
Hard to play? Try these video lessons and learn fast.
                
-|-5-5-x-5-5-5-x-x-x-x|1-1-x-1-1-1-x-x-x-x|x-x-x-x-x-x-x-x-x-x|---------------
-|-6-6-x-6-6-6-x-x-x-x|1-1-x-1-1-1-x-x-x-x|x-x-x-x-x-x-x-x-x-x|---------------
-|-7-7-x-7-7-7-x-x-x-x|2-2-x-2-2-2-x-x-x-x|3-3-x-3-3-3-x-x-x-x|---------------
-|-7-7-x-7-7-7-x-x-x-x|3-3-x-3-3-3-x-x-x-x|3-3-x-3-3-3-x-x-x-x|---------------
-|-5-5-x-5-5-5-x-x-x-x|3-3-x-3-3-3-x-x-x-x|1-1-x-1-1-1-x-x-x-x|---------------
-|-x-x-x-x-x-x-x-x-x-x|1-1-x-1-1-1-x-x-x-x|x-x-x-x-x-x-x-x-x-x|---------------
   d u d u u u d u d u d u d u u u d u d u d u d u u u d u d u  Intro         

-|-1-1-x-1-1-1-x-x-x-x--------------------------------------------------------
-|-1-1-x-1-1-1-x-x-x-x--------------------------------------------------------
-|-2-2-x-2-2-2-x-x-x-x--------------------------------------------------------
-|-3-3-x-3-3-3-x-x-x-x--------------------------------------------------------
-|-3-3-x-3-3-3-x-x-x-x--------------------------------------------------------
-|-1-1-x-1-1-1-x-x-x-x--------------------------------------------------------
   d u d u u u d u d u          Intro con. 2x then lyrics come in 3x          

-|-5-5-x-5-5-5-x-x-x-x|1-1-x-1-1-1-x-x-x-x|-x-x-x-x-x-x-x-x-x-x|--------------
-|-6-6-x-6-6-6-x-x-x-x|1-1-x-1-1-1-x-x-x-x|-x-x-x-x-x-x-x-x-x-x|--------------
-|-7-7-x-7-7-7-x-x-x-x|2-2-x-2-2-2-x-x-x-x|-3-3-x-3-3-3-x-x-x-x|--------------
-|-7-7-x-7-7-7-x-x-x-x|3-3-x-3-3-3-x-x-x-x|-3-3-x-3-3-3-x-x-x-x|--------------
-|-5-5-x-5-5-5-x-x-x-x|3-3-x-3-3-3-x-x-x-x|-1-1-x-1-1-1-x-x-x-x|--------------
-|-x-x-x-x-x-x-x-x-x-x|1-1-x-1-1-1-x-x-x-x|-x-x-x-x-x-x-x-x-x-x|--------------
 pre chorus "or maybe....                     "i'm so tired"                  

-|-x-x-x-x-x-x-x-x-x-x--------------------------------------------------------
-|-x-x-x-x-x-x-x-x-x-x--------------------------------------------------------
-|-5-5-x-5-5-5-x-x-x-x--------------------------------------------------------
-|-5-5-x-5-5-5-x-x-x-x--------------------------------------------------------
-|-3-3-x-3-3-3-x-x-x-x--------------------------------------------------------
-|-x-x-x-x-x-x-x-x-x-x--------------------------------------------------------
 "i'm so tired of trying" Pre chorus con.                                     

-|-1-1-x-1-1-1-x-x-x-x|-x-x-x-x-x-x-x-x-x-x|-x-x-x-x-x-x-x-x-x-x|-------------
-|-1-1-x-1-1-1-x-x-x-x|-x-x-x-x-x-x-x-x-x-x|-x-x-x-x-x-x-x-x-x-x|-------------
-|-2-2-x-2-2-2-x-x-x-x|-5-5-x-5-5-5-x-x-x-x|-7-7-x-7-7-7-x-x-x-x|-------------
-|-3-3-x-3-3-3-x-x-x-x|-5-5-x-5-5-5-x-x-x-x|-7-7-x-7-7-7-x-x-x-x|-------------
-|-3-3-x-3-3-3-x-x-x-x|-3-3-x-3-3-3-x-x-x-x|-5-5-x-5-5-5-x-x-x-x|-------------
-|-1-1-x-1-1-1-x-x-x-x|-x-x-x-x-x-x-x-x-x-x|-x-x-x-x-x-x-x-x-x-x|-------------
 chorus "it seems to me that maybe.... chorus                                 

-|-5-5-x-5-5-5-x-x-x-x|-x-x-x-x-x-x-x-x-x-x|-x-x-x-x-x-x-x-x-x-x|-------------
-|-5-5-x-5-5-5-x-x-x-x|-x-x-x-x-x-x-x-x-x-x|-x-x-x-x-x-x-x-x-x-x|-------------
-|-6-6-x-6-6-6-x-x-x-x|-3-3-x-3-3-3-x-x-x-x|-5-5-x-5-5-5-x-x-x-x|-------------
-|-7-7-x-7-7-7-x-x-x-x|-3-3-x-3-3-3-x-x-x-x|-5-5-x-5-5-5-x-x-x-x|-------------
-|-7-7-x-7-7-7-x-x-x-x|-1-1-x-1-1-1-x-x-x-x|-3-3-x-3-3-3-x-x-x-x|-------------
-|-5-5-x-5-5-5-x-x-x-x|-x-x-x-x-x-x-x-x-x-x|-x-x-x-x-x-x-x-x-x-x|-------------
 chorus con.    do chorus 2x              "likes to be let down"              

-|-5-----------------------1---------x-----------------1----------------------
-|-6-----------------------1---------x-----------------1----------------------
-|-7-----------------------2---------3-----------------2----------------------
-|-7-----------------------3---------3-----------------3----------------------
-|-5-----------------------3---------1-----------------3----------------------
-|-x-----------------------1---------x-----------------1----------------------
  "i know she loves the sunrise.    no longer sees...  sleeping eyes          
Strum each chord once
-|-5-----------------------1---------x-----------------1----------------------
-|-6-----------------------1---------x-----------------1----------------------
-|-7-----------------------2---------3-----------------2----------------------
-|-7-----------------------3---------3-----------------3----------------------
-|-5-----------------------3---------1-----------------3----------------------
-|-x-----------------------1---------x-----------------1----------------------
   "i know that..        gonna try.. might not work..  other ties...          

-|-5-5-x-5-5-5-x-x-x-x|1-1-x-1-1-1-x-x-x-x|x-x-x-x-x-x-x-x-x-x|---------------
-|-6-6-x-6-6-6-x-x-x-x|1-1-x-1-1-1-x-x-x-x|x-x-x-x-x-x-x-x-x-x|---------------
-|-7-7-x-7-7-7-x-x-x-x|2-2-x-2-2-2-x-x-x-x|3-3-x-3-3-3-x-x-x-x|---------------
-|-7-7-x-7-7-7-x-x-x-x|3-3-x-3-3-3-x-x-x-x|3-3-x-3-3-3-x-x-x-x|---------------
-|-5-5-x-5-5-5-x-x-x-x|3-3-x-3-3-3-x-x-x-x|1-1-x-1-1-1-x-x-x-x|---------------
-|-x-x-x-x-x-x-x-x-x-x|1-1-x-1-1-1-x-x-x-x|x-x-x-x-x-x-x-x-x-x|---------------
   d u d u u u d u d u d u d u u u d u d u d u d u u u d u d u 
"I know that she usually has some other ties but ............"
-|-1-1-x-1-1-1-x-x-x-x--------------------------------------------------------
-|-1-1-x-1-1-1-x-x-x-x--------------------------------------------------------
-|-2-2-x-2-2-2-x-x-x-x--------------------------------------------------------
-|-3-3-x-3-3-3-x-x-x-x--------------------------------------------------------
-|-3-3-x-3-3-3-x-x-x-x--------------------------------------------------------
-|-1-1-x-1-1-1-x-x-x-x--------------------------------------------------------
   d u d u u u d u d u 

-|-5-5-x-5-5-5-x-x-x-x|1-1-x-1-1-1-x-x-x-x|-x-x-x-x-x-x-x-x-x-x|--------------
-|-6-6-x-6-6-6-x-x-x-x|1-1-x-1-1-1-x-x-x-x|-x-x-x-x-x-x-x-x-x-x|--------------
-|-7-7-x-7-7-7-x-x-x-x|2-2-x-2-2-2-x-x-x-x|-3-3-x-3-3-3-x-x-x-x|--------------
-|-7-7-x-7-7-7-x-x-x-x|3-3-x-3-3-3-x-x-x-x|-3-3-x-3-3-3-x-x-x-x|--------------
-|-5-5-x-5-5-5-x-x-x-x|3-3-x-3-3-3-x-x-x-x|-1-1-x-1-1-1-x-x-x-x|--------------
-|-x-x-x-x-x-x-x-x-x-x|1-1-x-1-1-1-x-x-x-x|-x-x-x-x-x-x-x-x-x-x|--------------
 pre chorus              				" UNTIL THEN"

-|-x-x-x-x-x-x-x-x-x-x--------------------------------------------------------
-|-x-x-x-x-x-x-x-x-x-x--------------------------------------------------------
-|-5-5-x-5-5-5-x-x-x-x--------------------------------------------------------
-|-5-5-x-5-5-5-x-x-x-x--------------------------------------------------------
-|-3-3-x-3-3-3-x-x-x-x--------------------------------------------------------
-|-x-x-x-x-x-x-x-x-x-x--------------------------------------------------------
 "I'm gonna have to lie to you" 

-|-1-1-x-1-1-1-x-x-x-x|-x-x-x-x-x-x-x-x-x-x|-x-x-x-x-x-x-x-x-x-x|-------------
-|-1-1-x-1-1-1-x-x-x-x|-x-x-x-x-x-x-x-x-x-x|-x-x-x-x-x-x-x-x-x-x|-------------
-|-2-2-x-2-2-2-x-x-x-x|-5-5-x-5-5-5-x-x-x-x|-7-7-x-7-7-7-x-x-x-x|-------------
-|-3-3-x-3-3-3-x-x-x-x|-5-5-x-5-5-5-x-x-x-x|-7-7-x-7-7-7-x-x-x-x|-------------
-|-3-3-x-3-3-3-x-x-x-x|-3-3-x-3-3-3-x-x-x-x|-5-5-x-5-5-5-x-x-x-x|-------------
-|-1-1-x-1-1-1-x-x-x-x|-x-x-x-x-x-x-x-x-x-x|-x-x-x-x-x-x-x-x-x-x|-------------
 chorus "it seems to me that maybe.... chorus                                 

-|-5-5-x-5-5-5-x-x-x-x|-x-x-x-x-x-x-x-x-x-x|-x-x-x-x-x-x-x-x-x-x|-------------
-|-5-5-x-5-5-5-x-x-x-x|-x-x-x-x-x-x-x-x-x-x|-x-x-x-x-x-x-x-x-x-x|-------------
-|-6-6-x-6-6-6-x-x-x-x|-3-3-x-3-3-3-x-x-x-x|-5-5-x-5-5-5-x-x-x-x|-------------
-|-7-7-x-7-7-7-x-x-x-x|-3-3-x-3-3-3-x-x-x-x|-5-5-x-5-5-5-x-x-x-x|-------------
-|-7-7-x-7-7-7-x-x-x-x|-1-1-x-1-1-1-x-x-x-x|-3-3-x-3-3-3-x-x-x-x|-------------
-|-5-5-x-5-5-5-x-x-x-x|-x-x-x-x-x-x-x-x-x-x|-x-x-x-x-x-x-x-x-x-x|-------------
 chorus con.    do chorus 2x              "likes to be let down"
            

comments powered by Disqus
↑ Back to top | Jack Johnson Tabs for Flake. Lyrics for acoustic guitar and electric guitar. Tablatures and chords are parodies/interpretations of the original songs. You may use it for private study, scholarship, research or language learning purposes only