» » »

Jack Johnson, Flake Tabs (ver.2)

Artists:  A B C D E F G H I J K L M N O P Q R S T U V W X Y Z # 

Flake Tabs (ver.2)

Jack Johnson Tabs
Rating:
0/5 (0 votes)
Flake lessons Tabs too difficult? Try these video lessons and learn fast
                As far as I know there isn’t another tab for this online.

[yeah joey you were right heres a better version]

e---5--5-5-x-x-5-5--5-5-5-x-x-1--1-1-x-x-1-1--1-1-1-x-x-
B---6--6-6-x-x-6-6--6-6-6-x-x-1--1-1-x-x-1-1--1-1-1-x-x-
G---7--7-7-x-x-7-7--7-7-7-x-x-2--2-2-x-x-2-2--2-2-2-x-x-
D---7--7-7-x-x-7-7--7-7-7-x-x-3--3-3-x-x-3-3--3-3-3-x-x-
A---5--5-5-x-x-5-5--5-5-5-x-x-3--3-3-x-x-3-3--3-3-3-x-x-
E-----------------------------1--1-1-x-x-1-1--1-1-1-x-x—

e-6--6-6-x-x-6-6--6-6-6-x-x-1--1-1-x-x-1-1--1-1-1-x-x-
B-6--6-6-x-x-6-6--6-6-6-x-x-1--1-1-x-x-1-1--1-1-1-x-x-
G-7--7-7-x-x-7-7--7-7-7-x-x-2--2-2-x-x-2-2--2-2-2-x-x-
D-8--8-8-x-x-8-8--8-8-8-x-x-3--3-3-x-x-3-3--3-3-3-x-x-
A-8--8-8-x-x-8-8--8-8-8-x-x-3--3-3-x-x-3-3--3-3-3-x-x-
E-6--6-6-x-x-6-6--6-6-6-x-x-1--1-1-x-x-1-1--1-1-1-x-x—
				Intro & Verses ^

e-5--5-5-x-x-5-5--5-5-5-x-x-1--1-1-x-x-1-1--1-1-1-x-x-
B-6--6-6-x-x-6-6--6-6-6-x-x-1--1-1-x-x-1-1--1-1-1-x-x-
G-7--7-7-x-x-7-7--7-7-7-x-x-2--2-2-x-x-2-2--2-2-2-x-x-
D-7--7-7-x-x-7-7--7-7-7-x-x-3--3-3-x-x-3-3--3-3-3-x-x-
A-5--5-5-x-x-5-5--5-5-5-x-x-3--3-3-x-x-3-3--3-3-3-x-x-
E---------------------------1--1-1-x-x-1-1--1-1-1-x-x—

e-6--6-6-x-x-6-6--6-6-6-x-x--8---8--8-x-x--8--8---8--8--8-
B-6--6-6-x-x-6-6--6-6-6-x-x--8---8--8-x-x--8--8---8--8--8-
G-7--7-7-x-x-7-7--7-7-7-x-x--9---9--9-x-x--9--9---9--9--9-
D-8--8-8-x-x-8-8--8-8-8-x-x-10--10-10-x-x-10-10--10-10-10-
A-8--8-8-x-x-8-8--8-8-8-x-x-10--10-10-x-x-10-10--10-10-10-
E-6--6-6-x-x-6-6--6-6-6-x-x—-8---8—-8-x-x--8--8---8—-8--8-
				Last time before chorus^


e-1--1-1-x-x-1-1--1-1-1-x-x--8---8--8-x-x--8--8---8--8--8-x-x-
B-1--1-1-x-x-1-1--1-1-1-x-x--8---8--8-x-x--8--8---8--8--8-x-x-
G-2--2-2-x-x-2-2--2-2-2-x-x--9---9--9-x-x--9--9---9--9--9-x-x-
D-3--3-3-x-x-3-3--3-3-3-x-x-10--10-10-x-x-10-10--10-10-10-x-x-
A-3--3-3-x-x-3-3--3-3-3-x-x-10--10-10-x-x-10-10--10-10-10-x-x-
E-1--1-1-x-x-1-1--1-1-1-x-x--8---8--8-x-x--8--8---8--8--8-x-x-

e-5--5-5-x-x-5-5--5-5-5-x-x-5--5-5-x-x-5-5--5-5-5-x-x-
B-6--6-6-x-x-6-6--6-6-6-x-x-5--5-5-x-x-5-5--5-5-5-x-x-
G-7--7-7-x-x-7-7--7-7-7-x-x-6--6-6-x-x-6-6--6-6-6-x-x-
D-7--7-7-x-x-7-7--7-7-7-x-x-7--7-7-x-x-7-7--7-7-7-x-x-
A-5--5-5-x-x-5-5--5-5-5-x-x-7--7-7-x-x-7-7--7-7-7-x-x-
E---------------------------5--5-5-x-x-5-5--5-5-5-x-x-

e-6--6-6-x-x-6-6--6-6-6-x-x--8---8--8-x-x--8--8---8--8--8-
B-6--6-6-x-x-6-6--6-6-6-x-x--8---8--8-x-x--8--8---8--8--8-
G-7--7-7-x-x-7-7--7-7-7-x-x--9---9--9-x-x--9--9---9--9--9-
D-8--8-8-x-x-8-8--8-8-8-x-x-10--10-10-x-x-10-10--10-10-10-
A-8--8-8-x-x-8-8--8-8-8-x-x-10--10-10-x-x-10-10--10-10-10-
E-6--6-6-x-x-6-6--6-6-6-x-x—-8---8—-8-x-x--8--8---8—-8--8-

e-1--1-1-x-x-1-1--1-1-1-x-x--8---8--8-x-x--8--8---8--8--8-x-x-
B-1--1-1-x-x-1-1--1-1-1-x-x--8---8--8-x-x--8--8---8--8--8-x-x-
G-2--2-2-x-x-2-2--2-2-2-x-x--9---9--9-x-x--9--9---9--9--9-x-x-
D-3--3-3-x-x-3-3--3-3-3-x-x-10--10-10-x-x-10-10--10-10-10-x-x-
A-3--3-3-x-x-3-3--3-3-3-x-x-10--10-10-x-x-10-10--10-10-10-x-x-
E-1--1-1-x-x-1-1--1-1-1-x-x--8---8--8-x-x--8--8---8--8--8-x-x-
             			Chorus^

Song format:
Intro/Verse-6 times
Chorus-2 times
Small break then Verse-2 times
Chorus-3 times
Solo and rest of song-pick scr*pes

~~Listen to song for the rhythm, questions comments or want
            

comments powered by Disqus
↑ Back to top | Jack Johnson Tabs for Flake. Lyrics for acoustic guitar and electric guitar. Tablatures and chords are parodies/interpretations of the original songs. You may use it for private study, scholarship, research or language learning purposes only