» » »

Jack Johnson, Cupid Tabs (ver.2)

Artists:  A B C D E F G H I J K L M N O P Q R S T U V W X Y Z # 

Cupid Tabs (ver.2)

Jack Johnson Tabs
 Rating:
4/5 (4 votes)
Cupid lessons Tabs too difficult? Try these video lessons and learn fast
1
                A        A?       E        F#
--5--5--x--5--5--x--0--0--x--2--2--
--5--5--x--5--5--x--0--0--x--2--2--
--6--6--x--5--5--x--1--1--x--2--2--  PART
--7--7--x--6--6--x--2--2--x--4--4--    A
--7--7--x--7-----x--2--2--x--4--4--
--5--5--x--5-----x--0--0--x--2--2--

   Bm       Bm       E        E
--7--7--x--7--7--x--0--0--x--0--0--
--7--7--x--7--7--x--0--0--x--0--0--
--7--7--x--7--7--x--1--1--x--1--1--  PART
--9--9--x--9--9--x--2--2--x--2--2--    B
--9--9--x--9--9--x--2--2--x--2--2--
--7--7--x--7--7--x--0--0--x--0--0--

   A        A?       F#       F#
--5--5--x--5--5--x--2--2--x--2--2--
--5--5--x--5--5--x--2--2--x--2--2--
--6--6--x--5--5--x--2--2--x--2--2--  PART
--7--7--x--6--6--x--4--4--x--4--4--    C
--7--7--x--7-----x--4--4--x--4--4--
--5--5--x--5-----x--2--2--x--2--2--


Song Progression:
A(x6) B A(x2) B C B C B A(x2)
            
Submit corrections

comments powered by Disqus
↑ Back to top | Jack Johnson Tabs for Cupid. Lyrics for acoustic guitar and electric guitar. 1 Tablatures and chords are parodies/interpretations of the original songs. You may use it for private study, scholarship, research or language learning purposes only