» » »

Jack Johnson, Cupid Bass tabs (ver.1)

Artists:  A B C D E F G H I J K L M N O P Q R S T U V W X Y Z # 

Cupid Bass tabs (ver.1)

Jack Johnson Tabs
Rating:
0/5 (0 votes)
Cupid lessons Tabs too difficult? Try these video lessons and learn fast
                



Riff 1

G-----2--2--2----|--2-------------|-----2--2--2----|--2-------------|
D--4-------------|-----2-22--4----|--4-------------|-----2-22--4----|
A----------------|----------------|----------------|----------------|
E----------------|----------------|----------------|----------------|

G-----2--2--2----|--2-------------|-----2--2--2----|--2-------------|
D--4-------------|-----2-22--4----|--4-------------|-----2-22--4----|
A----------------|----------------|----------------|----------------|
E----------------|----------------|----------------|----------------|

G-----2--2--2----|--2-------------|-----2--2--2----|--2-------------|
D--4-------------|-----2-22--4----|--4-------------|-----2-22--4----|
A----------------|----------------|----------------|----------------|
E----------------|----------------|----------------|----------------|


Riff 2

G----------------|----------------|
D--9-99--9-9--9--|----------------|
A----------------|--7-77--7-7-7---|
E----------------|----------------|


Riff 1

G-----2--2--2----|--2-------------|-----2--2--2----|--2-------------|
D--4-------------|-----2-22--4----|--4-------------|-----2-22--4----|
A----------------|----------------|----------------|----------------|
E----------------|----------------|----------------|----------------|


Riff 3

G----------------|----------------|
D---------44-4-44|---------44-4-44|
A-22-2-22--------|-22-2-22--------|
E----------------|----------------|


Riff 1

G-----2--2--2----|--2-------------|-----2--2--2----|--2-------------|
D--4-------------|-----2-22--4----|--4-------------|-----2-22--4----|
A----------------|----------------|----------------|----------------|
E----------------|----------------|----------------|----------------|


End On This

G--2~~~----------|
D----------------|
A----------------|
E----------------|
            
Submit corrections

comments powered by Disqus
↑ Back to top | Jack Johnson Bass for Cupid. Lyrics for acoustic guitar and electric guitar. Tablatures and chords are parodies/interpretations of the original songs. You may use it for private study, scholarship, research or language learning purposes only